  0
SECTION
  2
HEADER
  9
$ACADVER
  1
AC1012
  9
$DWGCODEPAGE
  3
ANSI_1252
  9
$INSBASE
 10
0.0
 20
0.0
 30
0.0
  9
$EXTMIN
 10
-310.6601710415921
 20
-310.6601667839902
 30
-1380.051287506079
  9
$EXTMAX
 10
6734.064250016655
 20
6036.660176775658
 30
0.0
  9
$LIMMIN
 10
0.0
 20
0.0
  9
$LIMMAX
 10
420.0
 20
297.0
  9
$ORTHOMODE
 70
     1
  9
$REGENMODE
 70
     1
  9
$FILLMODE
 70
     1
  9
$QTEXTMODE
 70
     0
  9
$MIRRTEXT
 70
     1
  9
$DRAGMODE
 70
     2
  9
$LTSCALE
 40
1.0
  9
$OSMODE
 70
   513
  9
$ATTMODE
 70
     1
  9
$TEXTSIZE
 40
2.5
  9
$TRACEWID
 40
1.0
  9
$TEXTSTYLE
  7
STANDARD
  9
$CLAYER
  8
0
  9
$CELTYPE
  6
BYLAYER
  9
$CECOLOR
 62
   256
  9
$CELTSCALE
 40
1.0
  9
$DELOBJ
 70
     1
  9
$DISPSILH
 70
     0
  9
$DIMSCALE
 40
1.0
  9
$DIMASZ
 40
2.5
  9
$DIMEXO
 40
0.625
  9
$DIMDLI
 40
3.75
  9
$DIMRND
 40
0.0
  9
$DIMDLE
 40
0.0
  9
$DIMEXE
 40
1.25
  9
$DIMTP
 40
0.0
  9
$DIMTM
 40
0.0
  9
$DIMTXT
 40
2.5
  9
$DIMCEN
 40
2.5
  9
$DIMTSZ
 40
0.0
  9
$DIMTOL
 70
     0
  9
$DIMLIM
 70
     0
  9
$DIMTIH
 70
     0
  9
$DIMTOH
 70
     0
  9
$DIMSE1
 70
     0
  9
$DIMSE2
 70
     0
  9
$DIMTAD
 70
     1
  9
$DIMZIN
 70
     8
  9
$DIMBLK
  1

  9
$DIMASO
 70
     1
  9
$DIMSHO
 70
     1
  9
$DIMPOST
  1

  9
$DIMAPOST
  1

  9
$DIMALT
 70
     0
  9
$DIMALTD
 70
     3
  9
$DIMALTF
 40
0.03937007874016
  9
$DIMLFAC
 40
1.0
  9
$DIMTOFL
 70
     1
  9
$DIMTVP
 40
0.0
  9
$DIMTIX
 70
     0
  9
$DIMSOXD
 70
     0
  9
$DIMSAH
 70
     0
  9
$DIMBLK1
  1

  9
$DIMBLK2
  1

  9
$DIMSTYLE
  2
ISO-25
  9
$DIMCLRD
 70
     0
  9
$DIMCLRE
 70
     0
  9
$DIMCLRT
 70
     0
  9
$DIMTFAC
 40
1.0
  9
$DIMGAP
 40
0.625
  9
$DIMJUST
 70
     0
  9
$DIMSD1
 70
     0
  9
$DIMSD2
 70
     0
  9
$DIMTOLJ
 70
     0
  9
$DIMTZIN
 70
     8
  9
$DIMALTZ
 70
     0
  9
$DIMALTTZ
 70
     0
  9
$DIMFIT
 70
     3
  9
$DIMUPT
 70
     0
  9
$DIMUNIT
 70
     2
  9
$DIMDEC
 70
     2
  9
$DIMTDEC
 70
     2
  9
$DIMALTU
 70
     2
  9
$DIMALTTD
 70
     3
  9
$DIMTXSTY
  7
STANDARD
  9
$DIMAUNIT
 70
     0
  9
$LUNITS
 70
     2
  9
$LUPREC
 70
     4
  9
$SKETCHINC
 40
1.0
  9
$FILLETRAD
 40
10.0
  9
$AUNITS
 70
     0
  9
$AUPREC
 70
     0
  9
$MENU
  1
.
  9
$ELEVATION
 40
0.0
  9
$PELEVATION
 40
0.0
  9
$THICKNESS
 40
0.0
  9
$LIMCHECK
 70
     0
  9
$BLIPMODE
 70
     0
  9
$CHAMFERA
 40
10.0
  9
$CHAMFERB
 40
10.0
  9
$CHAMFERC
 40
20.0
  9
$CHAMFERD
 40
0.0
  9
$SKPOLY
 70
     0
  9
$TDCREATE
 40
2452626.670232754
  9
$TDUPDATE
 40
2452716.635735185
  9
$TDINDWG
 40
0.0038440972
  9
$TDUSRTIMER
 40
0.0038435185
  9
$USRTIMER
 70
     1
  9
$ANGBASE
 50
0.0
  9
$ANGDIR
 70
     0
  9
$PDMODE
 70
     0
  9
$PDSIZE
 40
0.0
  9
$PLINEWID
 40
0.0
  9
$COORDS
 70
     1
  9
$SPLFRAME
 70
     0
  9
$SPLINETYPE
 70
     6
  9
$SPLINESEGS
 70
     8
  9
$ATTDIA
 70
     0
  9
$ATTREQ
 70
     1
  9
$HANDLING
 70
-16383
  9
$HANDSEED
  5
AEC
  9
$SURFTAB1
 70
     6
  9
$SURFTAB2
 70
     6
  9
$SURFTYPE
 70
     6
  9
$SURFU
 70
     6
  9
$SURFV
 70
     6
  9
$UCSNAME
  2

  9
$UCSORG
 10
0.0
 20
0.0
 30
0.0
  9
$UCSXDIR
 10
1.0
 20
0.0
 30
0.0
  9
$UCSYDIR
 10
0.0
 20
1.0
 30
0.0
  9
$PUCSNAME
  2

  9
$PUCSORG
 10
0.0
 20
0.0
 30
0.0
  9
$PUCSXDIR
 10
1.0
 20
0.0
 30
0.0
  9
$PUCSYDIR
 10
0.0
 20
1.0
 30
0.0
  9
$USERI1
 70
     0
  9
$USERI2
 70
     0
  9
$USERI3
 70
     0
  9
$USERI4
 70
     0
  9
$USERI5
 70
     0
  9
$USERR1
 40
0.0
  9
$USERR2
 40
0.0
  9
$USERR3
 40
0.0
  9
$USERR4
 40
0.0
  9
$USERR5
 40
0.0
  9
$WORLDVIEW
 70
     1
  9
$SHADEDGE
 70
     3
  9
$SHADEDIF
 70
    70
  9
$TILEMODE
 70
     1
  9
$MAXACTVP
 70
    64
  9
$PINSBASE
 10
0.0
 20
0.0
 30
0.0
  9
$PLIMCHECK
 70
     0
  9
$PEXTMIN
 10
0.0
 20
0.0
 30
0.0
  9
$PEXTMAX
 10
0.0
 20
0.0
 30
0.0
  9
$PLIMMIN
 10
0.0
 20
0.0
  9
$PLIMMAX
 10
12.0
 20
9.0
  9
$UNITMODE
 70
     0
  9
$VISRETAIN
 70
     1
  9
$PLINEGEN
 70
     0
  9
$PSLTSCALE
 70
     1
  9
$TREEDEPTH
 70
  3020
  9
$PICKSTYLE
 70
     1
  9
$CMLSTYLE
  2
STANDARD
  9
$CMLJUST
 70
     0
  9
$CMLSCALE
 40
20.0
  9
$SAVEIMAGES
 70
     1
  0
ENDSEC
  0
SECTION
  2
CLASSES
  0
CLASS
  1
ACDBDICTIONARYWDFLT
  2
AcDbDictionaryWithDefault
  3
AutoCAD 2000
 90
    32768
280
     0
281
     0
  0
CLASS
  1
ACDBPLACEHOLDER
  2
AcDbPlaceHolder
  3
AutoCAD 2000
 90
    32768
280
     0
281
     0
  0
CLASS
  1
LAYOUT
  2
AcDbLayout
  3
AutoCAD 2000
 90
    32768
280
     0
281
     0
  0
CLASS
  1
LONG_TRANSACTION
  2
AcDbLongTransaction
  3
AutoCAD 2000
 90
    32768
280
     0
281
     0
  0
CLASS
  1
LWPOLYLINE
  2
AcDbPolyline
  3
AutoCAD 2000
 90
    32768
280
     0
281
     1
  0
CLASS
  1
HATCH
  2
AcDbHatch
  3
AutoCAD 2000
 90
    32768
280
     0
281
     1
  0
CLASS
  1
XRECORD
  2
AcDbXrecord
  3
AutoCAD 2000
 90
    32768
280
     0
281
     0
  0
CLASS
  1
LONG_TRANSACTION
  2
AcDbLongTransaction
  3
AutoCAD 2000
 90
    32768
280
     0
281
     0
  0
CLASS
  1
LWPOLYLINE
  2
AcDbPolyline
  3
AutoCAD 2000
 90
    32768
280
     0
281
     1
  0
CLASS
  1
HATCH
  2
AcDbHatch
  3
AutoCAD 2000
 90
    32768
280
     0
281
     1
  0
CLASS
  1
XRECORD
  2
AcDbXrecord
  3
AutoCAD 2000
 90
    32768
280
     0
281
     0
  0
CLASS
  1
LONG_TRANSACTION
  2
AcDbLongTransaction
  3
AutoCAD 2000
 90
    32768
280
     0
281
     0
  0
CLASS
  1
LWPOLYLINE
  2
AcDbPolyline
  3
AutoCAD 2000
 90
    32768
280
     0
281
     1
  0
CLASS
  1
HATCH
  2
AcDbHatch
  3
AutoCAD 2000
 90
    32768
280
     0
281
     1
  0
CLASS
  1
XRECORD
  2
AcDbXrecord
  3
AutoCAD 2000
 90
    32768
280
     0
281
     0
  0
CLASS
  1
LONG_TRANSACTION
  2
AcDbLongTransaction
  3
AutoCAD 2000
 90
    32768
280
     0
281
     0
  0
CLASS
  1
LWPOLYLINE
  2
AcDbPolyline
  3
AutoCAD 2000
 90
    32768
280
     0
281
     1
  0
CLASS
  1
HATCH
  2
AcDbHatch
  3
AutoCAD 2000
 90
    32768
280
     0
281
     1
  0
CLASS
  1
XRECORD
  2
AcDbXrecord
  3
AutoCAD 2000
 90
    32768
280
     0
281
     0
  0
ENDSEC
  0
SECTION
  2
TABLES
  0
TABLE
  2
VPORT
  5
8
330
0
100
AcDbSymbolTable
 70
     2
  0
VPORT
  5
602
330
8
100
AcDbSymbolTableRecord
100
AcDbViewportTableRecord
  2
*ACTIVE
 70
     0
 10
0.0
 20
0.0
 11
1.0
 21
1.0
 12
3206.500000738228
 22
4447.940511786588
 13
0.0
 23
0.0
 14
10.0
 24
10.0
 15
10.0
 25
10.0
 16
0.0
 26
0.0
 36
1.0
 17
0.0
 27
0.0
 37
0.0
 40
14741.38014401629
 41
1.297794117647058
 42
50.0
 43
0.0
 44
0.0
 50
0.0
 51
0.0
 71
     0
 72
   100
 73
     1
 74
     3
 75
     0
 76
     0
 77
     0
 78
     0
  0
ENDTAB
  0
TABLE
  2
LTYPE
  5
5
330
0
100
AcDbSymbolTable
 70
     2
  0
LTYPE
  5
14
330
5
100
AcDbSymbolTableRecord
100
AcDbLinetypeTableRecord
  2
BYBLOCK
 70
     0
  3

 72
    65
 73
     0
 40
0.0
  0
LTYPE
  5
15
330
5
100
AcDbSymbolTableRecord
100
AcDbLinetypeTableRecord
  2
BYLAYER
 70
     0
  3

 72
    65
 73
     0
 40
0.0
  0
LTYPE
  5
16
330
5
100
AcDbSymbolTableRecord
100
AcDbLinetypeTableRecord
  2
CONTINUOUS
 70
     0
  3
Solid line
 72
    65
 73
     0
 40
0.0
  0
LTYPE
  5
5D
330
5
100
AcDbSymbolTableRecord
100
AcDbLinetypeTableRecord
  2
DASHED
 70
     0
  3
Dashed __ __ __ __ __ __ __ __ __ __ __ __ __ _
 72
    65
 73
     2
 40
0.75
 49
0.5
 74
     0
 49
-0.25
 74
     0
  0
ENDTAB
  0
TABLE
  2
LAYER
  5
2
330
0
100
AcDbSymbolTable
 70
     4
  0
LAYER
  5
10
330
2
100
AcDbSymbolTableRecord
100
AcDbLayerTableRecord
  2
0
 70
     0
 62
     7
  6
CONTINUOUS
  0
LAYER
  5
5E
330
2
100
AcDbSymbolTableRecord
100
AcDbLayerTableRecord
  2
SAFETY
 70
     0
 62
     7
  6
CONTINUOUS
  0
LAYER
  5
5F
330
2
100
AcDbSymbolTableRecord
100
AcDbLayerTableRecord
  2
OBJECT
 70
     0
 62
     7
  6
CONTINUOUS
  0
LAYER
  5
5FA
330
2
100
AcDbSymbolTableRecord
100
AcDbLayerTableRecord
  2
TEKST
 70
     0
 62
     7
  6
CONTINUOUS
  0
ENDTAB
  0
TABLE
  2
STYLE
  5
3
330
0
100
AcDbSymbolTable
 70
     3
  0
STYLE
  5
11
330
3
100
AcDbSymbolTableRecord
100
AcDbTextStyleTableRecord
  2
STANDARD
 70
     0
 40
0.0
 41
1.0
 50
0.0
 71
     0
 42
2.5
  3
txt
  4

  0
STYLE
  5
60
330
3
100
AcDbSymbolTableRecord
100
AcDbTextStyleTableRecord
  2
STYLE1
 70
     0
 40
100.0
 41
1.0
 50
0.0
 71
     0
 42
100.0
  3
romans.shx
  4

  0
STYLE
  5
61
330
3
100
AcDbSymbolTableRecord
100
AcDbTextStyleTableRecord
  2
STYLE4
 70
     0
 40
150000.0
 41
1.0
 50
0.0
 71
     0
 42
25.0
  3
romant.shx
  4

  0
ENDTAB
  0
TABLE
  2
VIEW
  5
6
330
0
100
AcDbSymbolTable
 70
     0
  0
ENDTAB
  0
TABLE
  2
UCS
  5
7
330
0
100
AcDbSymbolTable
 70
     0
  0
ENDTAB
  0
TABLE
  2
APPID
  5
9
330
0
100
AcDbSymbolTable
 70
     2
  0
APPID
  5
12
330
9
100
AcDbSymbolTableRecord
100
AcDbRegAppTableRecord
  2
ACAD
 70
     0
  0
APPID
  5
3AC
330
9
100
AcDbSymbolTableRecord
100
AcDbRegAppTableRecord
  2
CONTENTBLOCKICON
 70
     0
  0
ENDTAB
  0
TABLE
  2
DIMSTYLE
  5
A
330
0
100
AcDbSymbolTable
 70
     2
  0
DIMSTYLE
105
27
330
A
100
AcDbSymbolTableRecord
100
AcDbDimStyleTableRecord
  2
ISO-25
 70
     0
  3

  4

  5

  6

  7

 40
1.0
 41
2.5
 42
0.625
 43
3.75
 44
1.25
 45
0.0
 46
0.0
 47
0.0
 48
0.0
140
2.5
141
2.5
142
0.0
143
0.03937007874016
144
1.0
145
0.0
146
1.0
147
0.625
 71
     0
 72
     0
 73
     0
 74
     0
 75
     0
 76
     0
 77
     1
 78
     8
170
     0
171
     3
172
     1
173
     0
174
     0
175
     0
176
     0
177
     0
178
     0
270
     2
271
     2
272
     2
273
     2
274
     3
340
11
275
     0
280
     0
281
     0
282
     0
283
     0
284
     8
285
     0
286
     0
287
     3
288
     0
  0
DIMSTYLE
105
62
330
A
100
AcDbSymbolTableRecord
100
AcDbDimStyleTableRecord
  2
STAND-1
 70
     0
  3

  4

  5

  6

  7

 40
10.0
 41
10.0
 42
25.0
 43
7.0
 44
2.0
 45
0.0
 46
0.0
 47
0.0
 48
0.0
140
100.0
141
0.09
142
0.0
143
25.4
144
1.0
145
0.0
146
1.0
147
3.0
 71
     0
 72
     0
 73
     0
 74
     0
 75
     0
 76
     0
 77
     1
 78
     8
170
     0
171
     2
172
     1
173
     0
174
     0
175
     0
176
     1
177
     1
178
     1
270
     2
271
     1
272
     0
273
     2
274
     2
340
60
275
     0
280
     0
281
     0
282
     0
283
     1
284
     0
285
     0
286
     0
287
     3
288
     0
  0
ENDTAB
  0
TABLE
  2
BLOCK_RECORD
  5
1
330
0
100
AcDbSymbolTable
 70
     3
  0
BLOCK_RECORD
  5
1F
102
{ACAD_XDICTIONARY
360
27D
102
}
330
1
100
AcDbSymbolTableRecord
100
AcDbBlockTableRecord
  2
*MODEL_SPACE
  0
BLOCK_RECORD
  5
50
102
{ACAD_XDICTIONARY
360
27F
102
}
330
1
100
AcDbSymbolTableRecord
100
AcDbBlockTableRecord
  2
*PAPER_SPACE
  0
BLOCK_RECORD
  5
28B
330
1
100
AcDbSymbolTableRecord
100
AcDbBlockTableRecord
  2
FDKC
1001
ACAD
1000
DesignCenter Data
1002
{
1070
     1
1070
     4
1002
}
1001
CONTENTBLOCKICON
1071
        0
1004
28000000200000002000000001000800000000000004000000000000000000000000000000000000000000004000000080000000FF000000002000004020000080200000FF200000004000004040000080400000FF400000006000004060000080600000FF600000008000004080000080800000FF80000000A0000040A000
1004
0080A00000FFA0000000C0000040C0000080C00000FFC0000000FF000040FF000080FF0000FFFF0000000020004000200080002000FF002000002020004020200080202000FF202000004020004040200080402000FF402000006020004060200080602000FF602000008020004080200080802000FF80200000A0200040A0
1004
200080A02000FFA0200000C0200040C0200080C02000FFC0200000FF200040FF200080FF2000FFFF2000000040004000400080004000FF004000002040004020400080204000FF204000004040004040400080404000FF404000006040004060400080604000FF604000008040004080400080804000FF80400000A0400040
1004
A0400080A04000FFA0400000C0400040C0400080C04000FFC0400000FF400040FF400080FF4000FFFF4000000060004000600080006000FF006000002060004020600080206000FF206000004060004040600080406000FF406000006060004060600080606000FF606000008060004080600080806000FF80600000A06000
1004
40A0600080A06000FFA0600000C0600040C0600080C06000FFC0600000FF600040FF600080FF6000FFFF6000000080004000800080008000FF008000002080004020800080208000FF208000004080004040800080408000FF408000006080004060800080608000FF608000008080004080800080808000FF80800000A080
1004
0040A0800080A08000FFA0800000C0800040C0800080C08000FFC0800000FF800040FF800080FF8000FFFF80000000A0004000A0008000A000FF00A0000020A0004020A0008020A000FF20A0000040A0004040A0008040A000FF40A0000060A0004060A0008060A000FF60A0000080A0004080A0008080A000FF80A00000A0
1004
A00040A0A00080A0A000FFA0A00000C0A00040C0A00080C0A000FFC0A00000FFA00040FFA00080FFA000FFFFA0000000C0004000C0008000C000FF00C0000020C0004020C0008020C000FF20C0000040C0004040C0008040C000FF40C0000060C0004060C0008060C000FF60C0000080C0004080C0008080C000FF80C00000
1004
A0C00040A0C00080A0C000FFA0C00000C0C00040C0C00080C0C000FFC0C00000FFC00040FFC00080FFC000FFFFC0000000FF004000FF008000FF00FF00FF000020FF004020FF008020FF00FF20FF000040FF004040FF008040FF00FF40FF000060FF004060FF008060FF00FF60FF000080FF004080FF008080FF00FF80FF00
1004
00A0FF0040A0FF0080A0FF00FFA0FF0000C0FF0040C0FF0080C0FF00FFC0FF0000FFFF0040FFFF0080FFFF00FFFFFF00000000000000000000000000000000000000000000000000000000000000000000000000000000000000FFFFFFFFFF0000000000000000000000000000000000000000000000000000FF0000000000
1004
FF000000000000000000000000000000000000000000000000FF00000000000000FF00000000000000000000000000000000000000000000FF000000000000000000FF000000000000000000000000000000000000000000FF00000000000000000000FF00000000000000000000000000000000000000FF00000000000000
1004
00000000FF000000000000000000000000000000000000FF00000000000000000000000000FF00000000000000000000000000000000FF000000000000FF00FF000000000000FF0000000000000000000000000000FF000000000000FFFFFFFFFF000000000000FF00000000000000000000000000FF000000000000FFFFFF
1004
FFFF000000000000FF00000000000000000000000000FF000000000000FFFFFFFFFF000000000000FF00000000000000000000000000FF000000000000FFFFFFFFFF00000000000000FF000000000000000000000000FF000000000000FFFFFFFFFF0000000000000000FF0000000000000000000000FF000000000000FFFF
1004
FFFFFF000000000000000000FF00000000000000000000FF000000000000FFFFFFFFFF00000000000000000000FF000000000000000000FF000000000000FFFFFFFFFF00000000000000000000FF000000000000000000FF000000000000FFFFFFFFFF0000000000000000000000FF0000000000000000FF000000000000FF
1004
FFFFFFFF000000000000000000000000FF00000000000000FF000000000000FFFFFFFFFFFFFFFFFFFFFFFF000000000000FF000000000000FF000000000000FFFFFFFFFFFFFFFFFFFFFFFF000000000000FF000000000000FF000000000000FFFFFFFFFFFFFFFFFFFFFFFF000000000000FF000000000000FF000000000000
1004
FFFFFFFFFFFFFFFFFFFFFFFF000000000000FF00000000000000FF00000000000000000000000000000000000000000000FF000000000000000000FF0000000000000000000000000000000000000000FF0000000000000000000000FF000000000000000000000000000000000000FF00000000000000000000000000FF00
1004
00000000000000000000000000000000FF00000000000000000000000000FF00000000000000000000000000000000FF000000000000000000000000000000FF0000000000000000000000000000FF0000000000000000000000000000000000FF000000000000000000000000FF0000000000000000000000000000000000
1004
0000FFFFFFFFFFFFFFFFFFFFFFFF000000000000000000000000000000000000000000000000000000000000000000000000000000000000
  0
BLOCK_RECORD
  5
4CA
330
1
100
AcDbSymbolTableRecord
100
AcDbBlockTableRecord
  2
FDKC2
1001
ACAD
1000
DesignCenter Data
1002
{
1070
     1
1070
     4
1002
}
1001
CONTENTBLOCKICON
1071
        0
1004
28000000200000002000000001000800000000000004000000000000000000000000000000000000000000004000000080000000FF000000002000004020000080200000FF200000004000004040000080400000FF400000006000004060000080600000FF600000008000004080000080800000FF80000000A0000040A000
1004
0080A00000FFA0000000C0000040C0000080C00000FFC0000000FF000040FF000080FF0000FFFF0000000020004000200080002000FF002000002020004020200080202000FF202000004020004040200080402000FF402000006020004060200080602000FF602000008020004080200080802000FF80200000A0200040A0
1004
200080A02000FFA0200000C0200040C0200080C02000FFC0200000FF200040FF200080FF2000FFFF2000000040004000400080004000FF004000002040004020400080204000FF204000004040004040400080404000FF404000006040004060400080604000FF604000008040004080400080804000FF80400000A0400040
1004
A0400080A04000FFA0400000C0400040C0400080C04000FFC0400000FF400040FF400080FF4000FFFF4000000060004000600080006000FF006000002060004020600080206000FF206000004060004040600080406000FF406000006060004060600080606000FF606000008060004080600080806000FF80600000A06000
1004
40A0600080A06000FFA0600000C0600040C0600080C06000FFC0600000FF600040FF600080FF6000FFFF6000000080004000800080008000FF008000002080004020800080208000FF208000004080004040800080408000FF408000006080004060800080608000FF608000008080004080800080808000FF80800000A080
1004
0040A0800080A08000FFA0800000C0800040C0800080C08000FFC0800000FF800040FF800080FF8000FFFF80000000A0004000A0008000A000FF00A0000020A0004020A0008020A000FF20A0000040A0004040A0008040A000FF40A0000060A0004060A0008060A000FF60A0000080A0004080A0008080A000FF80A00000A0
1004
A00040A0A00080A0A000FFA0A00000C0A00040C0A00080C0A000FFC0A00000FFA00040FFA00080FFA000FFFFA0000000C0004000C0008000C000FF00C0000020C0004020C0008020C000FF20C0000040C0004040C0008040C000FF40C0000060C0004060C0008060C000FF60C0000080C0004080C0008080C000FF80C00000
1004
A0C00040A0C00080A0C000FFA0C00000C0C00040C0C00080C0C000FFC0C00000FFC00040FFC00080FFC000FFFFC0000000FF004000FF008000FF00FF00FF000020FF004020FF008020FF00FF20FF000040FF004040FF008040FF00FF40FF000060FF004060FF008060FF00FF60FF000080FF004080FF008080FF00FF80FF00
1004
00A0FF0040A0FF0080A0FF00FFA0FF0000C0FF0040C0FF0080C0FF00FFC0FF0000FFFF0040FFFF0080FFFF00FFFFFF0000000000000000000000000000000000000000000000000000000000000000000000000000000000000000000000000000000000000000000000000000000000000000000000000000000000000000
1004
00000000000000000000000000000000000000000000000000FFFFFFFF000000000000000000000000000000000000000000000000000000FF00000000FF00000000000000000000000000000000000000000000000000FF000000000000FF0000000000000000000000000000000000000000000000FF0000000000000000
1004
FF000000000000000000000000000000000000000000FF00000000000000000000FF00000000000000000000000000000000000000FF000000000000000000000000FF0000000000000000000000000000000000FF0000000000FFFFFFFF0000000000FF000000000000000000000000000000FF000000000000FFFFFFFF00
1004
0000000000FF0000000000000000000000000000FF000000000000FFFFFFFF000000000000FF0000000000000000000000000000FF000000000000FFFFFFFF000000000000FFFF00000000000000000000000000FF000000000000FFFFFFFF0000000000000000FFFFFFFF000000000000000000FF000000000000FFFFFFFF
1004
000000000000000000000000FF0000000000000000FF000000000000FFFFFFFF00000000000000000000000000FF00000000000000FF000000000000FFFFFFFF0000000000000000000000000000FF000000000000FF000000000000FFFFFFFF000000000000000000000000000000FF0000000000FF000000000000FFFFFF
1004
FFFFFFFFFFFFFFFF000000000000000000FF00000000FF000000000000FFFFFFFFFFFFFFFFFFFFFF00000000000000000000FF000000FF000000000000FFFFFFFFFFFFFFFFFFFFFFFFFFFFFFFF000000000000FF0000FF000000000000FFFFFFFFFFFFFFFFFFFFFF00000000000000000000FF00000000FF0000000000FF00
1004
00FFFFFFFFFFFFFFFF000000000000000000FF000000000000FF0000000000000000000000000000000000000000000000FF0000000000000000FF000000000000000000000000000000000000000000FF00000000000000000000FF00000000000000000000000000000000000000FF000000000000000000000000FF0000
1004
000000000000000000000000000000FF0000000000000000000000000000FF00000000000000000000000000FFFFFF00000000000000000000000000000000FFFFFFFFFFFFFFFFFFFFFFFFFF000000000000000000000000000000000000000000000000000000000000000000000000000000000000000000000000000000
1004
0000000000000000000000000000000000000000000000000000000000000000000000000000000000000000000000000000000000000000
  0
ENDTAB
  0
ENDSEC
  0
SECTION
  2
BLOCKS
  0
BLOCK
  5
20
330
1F
100
AcDbEntity
  8
0
100
AcDbBlockBegin
  2
*MODEL_SPACE
 70
     0
 10
0.0
 20
0.0
 30
0.0
  3
*MODEL_SPACE
  1

  0
ENDBLK
  5
21
330
1F
100
AcDbEntity
  8
0
100
AcDbBlockEnd
  0
BLOCK
  5
52
330
50
100
AcDbEntity
 67
     1
  8
0
100
AcDbBlockBegin
  2
*PAPER_SPACE
 70
     0
 10
0.0
 20
0.0
 30
0.0
  3
*PAPER_SPACE
  1

  0
ENDBLK
  5
53
330
50
100
AcDbEntity
 67
     1
  8
0
100
AcDbBlockEnd
  0
BLOCK
  5
28C
330
28B
100
AcDbEntity
  8
0
100
AcDbBlockBegin
  2
FDKC
 70
     0
 10
0.0
 20
0.0
 30
0.0
  3
FDKC
  1

  0
LINE
  5
28E
330
28B
100
AcDbEntity
  8
OBJECT
100
AcDbLine
 10
3587.000000738228
 20
4229.000004995836
 30
-1379.051287506078
 11
2291.500000738231
 21
4229.000004995836
 31
-1379.051287506078
  0
LINE
  5
28F
330
28B
100
AcDbEntity
  8
OBJECT
100
AcDbLine
 10
2291.500000738226
 20
4142.000004995836
 30
-1379.051287506078
 11
3587.000000738228
 21
4142.000004995836
 31
-1379.051287506078
  0
LINE
  5
290
330
28B
100
AcDbEntity
  8
OBJECT
100
AcDbLine
 10
3586.000000738229
 20
3523.500004995833
 30
-1379.051287506078
 11
2295.000000738229
 21
3523.500004995833
 31
-1379.051287506078
  0
LINE
  5
291
330
28B
100
AcDbEntity
  8
OBJECT
100
AcDbLine
 10
2295.000000738229
 20
3557.500004995834
 30
-1379.051287506078
 11
3586.000000738229
 21
3557.500004995834
 31
-1379.051287506078
  0
POLYLINE
  5
292
330
28B
100
AcDbEntity
  8
OBJECT
100
AcDb2dPolyline
 66
     1
 10
0.0
 20
0.0
 30
-1379.051287506078
  0
VERTEX
  5
606
330
292
100
AcDbEntity
  8
OBJECT
100
AcDbVertex
100
AcDb2dVertex
 10
2289.436492411325
 20
4131.000004995832
 30
-1379.051287506078
  0
VERTEX
  5
607
330
292
100
AcDbEntity
  8
OBJECT
100
AcDbVertex
100
AcDb2dVertex
 10
3673.000000738228
 20
4131.000004995832
 30
-1379.051287506078
  0
VERTEX
  5
608
330
292
100
AcDbEntity
  8
OBJECT
100
AcDbVertex
100
AcDb2dVertex
 10
3673.000000738228
 20
4111.000004995831
 30
-1379.051287506078
  0
VERTEX
  5
609
330
292
100
AcDbEntity
  8
OBJECT
100
AcDbVertex
100
AcDb2dVertex
 10
3653.500000738233
 20
4111.000004995831
 30
-1379.051287506078
  0
SEQEND
  5
60A
330
292
100
AcDbEntity
  8
OBJECT
  0
POLYLINE
  5
293
330
28B
100
AcDbEntity
  8
OBJECT
100
AcDb2dPolyline
 66
     1
 10
0.0
 20
0.0
 30
-1379.051287506078
  0
VERTEX
  5
60B
330
293
100
AcDbEntity
  8
OBJECT
100
AcDbVertex
100
AcDb2dVertex
 10
3635.500000738232
 20
4111.000004995831
 30
-1379.051287506078
  0
VERTEX
  5
60C
330
293
100
AcDbEntity
  8
OBJECT
100
AcDbVertex
100
AcDb2dVertex
 10
1541.500000738229
 20
4111.000004995831
 30
-1379.051287506078
  0
SEQEND
  5
60D
330
293
100
AcDbEntity
  8
OBJECT
  0
POLYLINE
  5
294
330
28B
100
AcDbEntity
  8
OBJECT
100
AcDb2dPolyline
 66
     1
 10
0.0
 20
0.0
 30
-1379.051287506079
  0
VERTEX
  5
60E
330
294
100
AcDbEntity
  8
OBJECT
100
AcDbVertex
100
AcDb2dVertex
 10
3635.500000738232
 20
4044.000004995834
 30
-1379.051287506079
  0
VERTEX
  5
60F
330
294
100
AcDbEntity
  8
OBJECT
100
AcDbVertex
100
AcDb2dVertex
 10
1541.500000738229
 20
4044.000004995834
 30
-1379.051287506079
  0
SEQEND
  5
610
330
294
100
AcDbEntity
  8
OBJECT
  0
POLYLINE
  5
295
330
28B
100
AcDbEntity
  8
OBJECT
100
AcDb2dPolyline
 66
     1
 10
0.0
 20
0.0
 30
-1379.051287506079
  0
VERTEX
  5
611
330
295
100
AcDbEntity
  8
OBJECT
100
AcDbVertex
100
AcDb2dVertex
 10
3635.500000738232
 20
4042.500004995832
 30
-1379.051287506079
  0
VERTEX
  5
612
330
295
100
AcDbEntity
  8
OBJECT
100
AcDbVertex
100
AcDb2dVertex
 10
1541.500000738229
 20
4042.500004995832
 30
-1379.051287506079
  0
SEQEND
  5
613
330
295
100
AcDbEntity
  8
OBJECT
  0
POLYLINE
  5
296
330
28B
100
AcDbEntity
  8
OBJECT
100
AcDb2dPolyline
 66
     1
 10
0.0
 20
0.0
 30
-1379.051287506078
  0
VERTEX
  5
614
330
296
100
AcDbEntity
  8
OBJECT
100
AcDbVertex
100
AcDb2dVertex
 10
3635.500000738232
 20
3957.000004995833
 30
-1379.051287506078
  0
VERTEX
  5
615
330
296
100
AcDbEntity
  8
OBJECT
100
AcDbVertex
100
AcDb2dVertex
 10
1541.500000738229
 20
3957.000004995833
 30
-1379.051287506078
  0
SEQEND
  5
616
330
296
100
AcDbEntity
  8
OBJECT
  0
POLYLINE
  5
297
330
28B
100
AcDbEntity
  8
OBJECT
100
AcDb2dPolyline
 66
     1
 10
0.0
 20
0.0
 30
-1379.051287506078
  0
VERTEX
  5
617
330
297
100
AcDbEntity
  8
OBJECT
100
AcDbVertex
100
AcDb2dVertex
 10
3635.500000738232
 20
3955.500004995832
 30
-1379.051287506078
  0
VERTEX
  5
618
330
297
100
AcDbEntity
  8
OBJECT
100
AcDbVertex
100
AcDb2dVertex
 10
1541.500000738229
 20
3955.500004995832
 30
-1379.051287506078
  0
SEQEND
  5
619
330
297
100
AcDbEntity
  8
OBJECT
  0
POLYLINE
  5
298
330
28B
100
AcDbEntity
  8
OBJECT
100
AcDb2dPolyline
 66
     1
 10
0.0
 20
0.0
 30
-1379.051287506078
  0
VERTEX
  5
61A
330
298
100
AcDbEntity
  8
OBJECT
100
AcDbVertex
100
AcDb2dVertex
 10
3635.500000738232
 20
3870.000004995834
 30
-1379.051287506078
  0
VERTEX
  5
61B
330
298
100
AcDbEntity
  8
OBJECT
100
AcDbVertex
100
AcDb2dVertex
 10
1541.500000738229
 20
3870.000004995834
 30
-1379.051287506078
  0
SEQEND
  5
61C
330
298
100
AcDbEntity
  8
OBJECT
  0
POLYLINE
  5
299
330
28B
100
AcDbEntity
  8
OBJECT
100
AcDb2dPolyline
 66
     1
 10
0.0
 20
0.0
 30
-1379.051287506078
  0
VERTEX
  5
61D
330
299
100
AcDbEntity
  8
OBJECT
100
AcDbVertex
100
AcDb2dVertex
 10
3635.500000738232
 20
3868.500004995832
 30
-1379.051287506078
  0
VERTEX
  5
61E
330
299
100
AcDbEntity
  8
OBJECT
100
AcDbVertex
100
AcDb2dVertex
 10
1541.500000738229
 20
3868.500004995832
 30
-1379.051287506078
  0
SEQEND
  5
61F
330
299
100
AcDbEntity
  8
OBJECT
  0
POLYLINE
  5
29A
330
28B
100
AcDbEntity
  8
OBJECT
100
AcDb2dPolyline
 66
     1
 10
0.0
 20
0.0
 30
-1379.051287506078
  0
VERTEX
  5
620
330
29A
100
AcDbEntity
  8
OBJECT
100
AcDbVertex
100
AcDb2dVertex
 10
3635.500000738232
 20
3781.500004995834
 30
-1379.051287506078
  0
VERTEX
  5
621
330
29A
100
AcDbEntity
  8
OBJECT
100
AcDbVertex
100
AcDb2dVertex
 10
1541.500000738229
 20
3781.500004995834
 30
-1379.051287506078
  0
SEQEND
  5
622
330
29A
100
AcDbEntity
  8
OBJECT
  0
POLYLINE
  5
29B
330
28B
100
AcDbEntity
  8
OBJECT
100
AcDb2dPolyline
 66
     1
 10
0.0
 20
0.0
 30
-1379.051287506078
  0
VERTEX
  5
623
330
29B
100
AcDbEntity
  8
OBJECT
100
AcDbVertex
100
AcDb2dVertex
 10
3635.500000738232
 20
3783.000004995834
 30
-1379.051287506078
  0
VERTEX
  5
624
330
29B
100
AcDbEntity
  8
OBJECT
100
AcDbVertex
100
AcDb2dVertex
 10
1541.500000738229
 20
3783.000004995834
 30
-1379.051287506078
  0
SEQEND
  5
625
330
29B
100
AcDbEntity
  8
OBJECT
  0
POLYLINE
  5
29C
330
28B
100
AcDbEntity
  8
OBJECT
100
AcDb2dPolyline
 66
     1
 10
0.0
 20
0.0
 30
-1379.051287506078
  0
VERTEX
  5
626
330
29C
100
AcDbEntity
  8
OBJECT
100
AcDbVertex
100
AcDb2dVertex
 10
3635.500000738232
 20
3696.000004995834
 30
-1379.051287506078
  0
VERTEX
  5
627
330
29C
100
AcDbEntity
  8
OBJECT
100
AcDbVertex
100
AcDb2dVertex
 10
1541.500000738229
 20
3696.000004995834
 30
-1379.051287506078
  0
SEQEND
  5
628
330
29C
100
AcDbEntity
  8
OBJECT
  0
POLYLINE
  5
29D
330
28B
100
AcDbEntity
  8
OBJECT
100
AcDb2dPolyline
 66
     1
 10
0.0
 20
0.0
 30
-1379.051287506078
  0
VERTEX
  5
629
330
29D
100
AcDbEntity
  8
OBJECT
100
AcDbVertex
100
AcDb2dVertex
 10
3635.500000738232
 20
3609.000004995836
 30
-1379.051287506078
  0
VERTEX
  5
62A
330
29D
100
AcDbEntity
  8
OBJECT
100
AcDbVertex
100
AcDb2dVertex
 10
1541.500000738229
 20
3609.000004995836
 30
-1379.051287506078
  0
SEQEND
  5
62B
330
29D
100
AcDbEntity
  8
OBJECT
  0
POLYLINE
  5
29E
330
28B
100
AcDbEntity
  8
OBJECT
100
AcDb2dPolyline
 66
     1
 10
0.0
 20
0.0
 30
-1379.051287506078
  0
VERTEX
  5
62C
330
29E
100
AcDbEntity
  8
OBJECT
100
AcDbVertex
100
AcDb2dVertex
 10
3635.500000738232
 20
3694.500004995834
 30
-1379.051287506078
  0
VERTEX
  5
62D
330
29E
100
AcDbEntity
  8
OBJECT
100
AcDbVertex
100
AcDb2dVertex
 10
1541.500000738229
 20
3694.500004995834
 30
-1379.051287506078
  0
SEQEND
  5
62E
330
29E
100
AcDbEntity
  8
OBJECT
  0
POLYLINE
  5
29F
330
28B
100
AcDbEntity
  8
OBJECT
100
AcDb2dPolyline
 66
     1
 10
0.0
 20
0.0
 30
-1379.051287506078
  0
VERTEX
  5
62F
330
29F
100
AcDbEntity
  8
OBJECT
100
AcDbVertex
100
AcDb2dVertex
 10
3589.500000738228
 20
3589.000004995833
 30
-1379.051287506078
  0
VERTEX
  5
630
330
29F
100
AcDbEntity
  8
OBJECT
100
AcDbVertex
100
AcDb2dVertex
 10
2291.500000738231
 20
3589.000004995833
 30
-1379.051287506078
  0
SEQEND
  5
631
330
29F
100
AcDbEntity
  8
OBJECT
  0
POLYLINE
  5
2A0
330
28B
100
AcDbEntity
  8
OBJECT
100
AcDb2dPolyline
 66
     1
 10
0.0
 20
0.0
 30
-1379.051287506079
  0
VERTEX
  5
632
330
2A0
100
AcDbEntity
  8
OBJECT
100
AcDbVertex
100
AcDb2dVertex
 10
1541.500000738229
 20
4111.000004995833
 30
-1379.051287506079
  0
VERTEX
  5
633
330
2A0
100
AcDbEntity
  8
OBJECT
100
AcDbVertex
100
AcDb2dVertex
 10
3635.500000738232
 20
4111.000004995833
 30
-1379.051287506079
  0
SEQEND
  5
634
330
2A0
100
AcDbEntity
  8
OBJECT
  0
POLYLINE
  5
2A1
330
28B
100
AcDbEntity
  8
OBJECT
100
AcDb2dPolyline
 66
     1
 10
0.0
 20
0.0
 30
-1379.051287506078
  0
VERTEX
  5
635
330
2A1
100
AcDbEntity
  8
OBJECT
100
AcDbVertex
100
AcDb2dVertex
 10
1541.500000738229
 20
4024.000004995833
 30
-1379.051287506078
  0
VERTEX
  5
636
330
2A1
100
AcDbEntity
  8
OBJECT
100
AcDbVertex
100
AcDb2dVertex
 10
3635.500000738232
 20
4024.000004995833
 30
-1379.051287506078
  0
SEQEND
  5
637
330
2A1
100
AcDbEntity
  8
OBJECT
  0
POLYLINE
  5
2A2
330
28B
100
AcDbEntity
  8
OBJECT
100
AcDb2dPolyline
 66
     1
 10
0.0
 20
0.0
 30
-1379.051287506078
  0
VERTEX
  5
638
330
2A2
100
AcDbEntity
  8
OBJECT
100
AcDbVertex
100
AcDb2dVertex
 10
1541.500000738229
 20
3937.000004995834
 30
-1379.051287506078
  0
VERTEX
  5
639
330
2A2
100
AcDbEntity
  8
OBJECT
100
AcDbVertex
100
AcDb2dVertex
 10
3635.500000738232
 20
3937.000004995834
 30
-1379.051287506078
  0
SEQEND
  5
63A
330
2A2
100
AcDbEntity
  8
OBJECT
  0
POLYLINE
  5
2A3
330
28B
100
AcDbEntity
  8
OBJECT
100
AcDb2dPolyline
 66
     1
 10
0.0
 20
0.0
 30
-1379.051287506078
  0
VERTEX
  5
63B
330
2A3
100
AcDbEntity
  8
OBJECT
100
AcDbVertex
100
AcDb2dVertex
 10
1541.500000738229
 20
3848.500004995834
 30
-1379.051287506078
  0
VERTEX
  5
63C
330
2A3
100
AcDbEntity
  8
OBJECT
100
AcDbVertex
100
AcDb2dVertex
 10
3635.500000738232
 20
3848.500004995834
 30
-1379.051287506078
  0
SEQEND
  5
63D
330
2A3
100
AcDbEntity
  8
OBJECT
  0
POLYLINE
  5
2A4
330
28B
100
AcDbEntity
  8
OBJECT
100
AcDb2dPolyline
 66
     1
 10
0.0
 20
0.0
 30
-1379.051287506078
  0
VERTEX
  5
63E
330
2A4
100
AcDbEntity
  8
OBJECT
100
AcDbVertex
100
AcDb2dVertex
 10
1541.500000738229
 20
3763.000004995834
 30
-1379.051287506078
  0
VERTEX
  5
63F
330
2A4
100
AcDbEntity
  8
OBJECT
100
AcDbVertex
100
AcDb2dVertex
 10
3635.500000738232
 20
3763.000004995834
 30
-1379.051287506078
  0
SEQEND
  5
640
330
2A4
100
AcDbEntity
  8
OBJECT
  0
POLYLINE
  5
2A5
330
28B
100
AcDbEntity
  8
OBJECT
100
AcDb2dPolyline
 66
     1
 10
0.0
 20
0.0
 30
-1379.051287506078
  0
VERTEX
  5
641
330
2A5
100
AcDbEntity
  8
OBJECT
100
AcDbVertex
100
AcDb2dVertex
 10
1541.500000738229
 20
3676.000004995836
 30
-1379.051287506078
  0
VERTEX
  5
642
330
2A5
100
AcDbEntity
  8
OBJECT
100
AcDbVertex
100
AcDb2dVertex
 10
3635.500000738232
 20
3676.000004995836
 30
-1379.051287506078
  0
SEQEND
  5
643
330
2A5
100
AcDbEntity
  8
OBJECT
  0
POLYLINE
  5
2A6
330
28B
100
AcDbEntity
  8
OBJECT
100
AcDb2dPolyline
 66
     1
 10
0.0
 20
0.0
 30
-1379.051287506079
  0
VERTEX
  5
644
330
2A6
100
AcDbEntity
  8
OBJECT
100
AcDbVertex
100
AcDb2dVertex
 10
1541.500000738229
 20
4024.000004995833
 30
-1379.051287506079
  0
VERTEX
  5
645
330
2A6
100
AcDbEntity
  8
OBJECT
100
AcDbVertex
100
AcDb2dVertex
 10
3635.500000738232
 20
4024.000004995833
 30
-1379.051287506079
  0
SEQEND
  5
646
330
2A6
100
AcDbEntity
  8
OBJECT
  0
POLYLINE
  5
2A7
330
28B
100
AcDbEntity
  8
OBJECT
100
AcDb2dPolyline
 66
     1
 10
0.0
 20
0.0
 30
-1379.051287506078
  0
VERTEX
  5
647
330
2A7
100
AcDbEntity
  8
OBJECT
100
AcDbVertex
100
AcDb2dVertex
 10
1541.500000738229
 20
3937.000004995834
 30
-1379.051287506078
  0
VERTEX
  5
648
330
2A7
100
AcDbEntity
  8
OBJECT
100
AcDbVertex
100
AcDb2dVertex
 10
3635.500000738232
 20
3937.000004995834
 30
-1379.051287506078
  0
SEQEND
  5
649
330
2A7
100
AcDbEntity
  8
OBJECT
  0
POLYLINE
  5
2A8
330
28B
100
AcDbEntity
  8
OBJECT
100
AcDb2dPolyline
 66
     1
 10
0.0
 20
0.0
 30
-1379.051287506078
  0
VERTEX
  5
64A
330
2A8
100
AcDbEntity
  8
OBJECT
100
AcDbVertex
100
AcDb2dVertex
 10
1541.500000738229
 20
3850.000004995834
 30
-1379.051287506078
  0
VERTEX
  5
64B
330
2A8
100
AcDbEntity
  8
OBJECT
100
AcDbVertex
100
AcDb2dVertex
 10
3635.500000738232
 20
3850.000004995834
 30
-1379.051287506078
  0
SEQEND
  5
64C
330
2A8
100
AcDbEntity
  8
OBJECT
  0
POLYLINE
  5
2A9
330
28B
100
AcDbEntity
  8
OBJECT
100
AcDb2dPolyline
 66
     1
 10
0.0
 20
0.0
 30
-1379.051287506078
  0
VERTEX
  5
64D
330
2A9
100
AcDbEntity
  8
OBJECT
100
AcDbVertex
100
AcDb2dVertex
 10
1541.500000738229
 20
3764.500004995836
 30
-1379.051287506078
  0
VERTEX
  5
64E
330
2A9
100
AcDbEntity
  8
OBJECT
100
AcDbVertex
100
AcDb2dVertex
 10
3635.500000738232
 20
3764.500004995836
 30
-1379.051287506078
  0
SEQEND
  5
64F
330
2A9
100
AcDbEntity
  8
OBJECT
  0
POLYLINE
  5
2AA
330
28B
100
AcDbEntity
  8
OBJECT
100
AcDb2dPolyline
 66
     1
 10
0.0
 20
0.0
 30
-1379.051287506078
  0
VERTEX
  5
650
330
2AA
100
AcDbEntity
  8
OBJECT
100
AcDbVertex
100
AcDb2dVertex
 10
1541.500000738229
 20
3676.000004995836
 30
-1379.051287506078
  0
VERTEX
  5
651
330
2AA
100
AcDbEntity
  8
OBJECT
100
AcDbVertex
100
AcDb2dVertex
 10
3635.500000738232
 20
3676.000004995836
 30
-1379.051287506078
  0
SEQEND
  5
652
330
2AA
100
AcDbEntity
  8
OBJECT
  0
POLYLINE
  5
2AB
330
28B
100
AcDbEntity
  8
OBJECT
100
AcDb2dPolyline
 66
     1
 10
0.0
 20
0.0
 30
-1379.051287506078
  0
VERTEX
  5
653
330
2AB
100
AcDbEntity
  8
OBJECT
100
AcDbVertex
100
AcDb2dVertex
 10
1541.500000738229
 20
3609.000004995836
 30
-1379.051287506078
  0
VERTEX
  5
654
330
2AB
100
AcDbEntity
  8
OBJECT
100
AcDbVertex
100
AcDb2dVertex
 10
3635.500000738232
 20
3609.000004995836
 30
-1379.051287506078
  0
SEQEND
  5
655
330
2AB
100
AcDbEntity
  8
OBJECT
  0
POLYLINE
  5
2AC
330
28B
100
AcDbEntity
  8
SAFETY
  6
DASHED
 48
5.0
100
AcDb2dPolyline
 66
     1
 10
0.0
 20
0.0
 30
-1379.051287506078
 70
     1
  0
VERTEX
  5
656
330
2AC
100
AcDbEntity
  8
SAFETY
  6
DASHED
 48
5.0
100
AcDbVertex
100
AcDb2dVertex
 10
3693.000000738229
 20
5726.000004995836
 30
-1379.051287506078
  0
VERTEX
  5
657
330
2AC
100
AcDbEntity
  8
SAFETY
  6
DASHED
 48
5.0
100
AcDbVertex
100
AcDb2dVertex
 10
1500.000000738229
 20
5726.000004995836
 30
-1379.051287506078
 42
0.4142135623730951
  0
VERTEX
  5
658
330
2AC
100
AcDbEntity
  8
SAFETY
  6
DASHED
 48
5.0
100
AcDbVertex
100
AcDb2dVertex
 10
0.0000007382295735
 20
4226.000004995836
 30
-1379.051287506078
  0
VERTEX
  5
659
330
2AC
100
AcDbEntity
  8
SAFETY
  6
DASHED
 48
5.0
100
AcDbVertex
100
AcDb2dVertex
 10
0.0000007382295735
 20
1500.00000499583
 30
-1379.051287506078
 42
0.4142135623730951
  0
VERTEX
  5
65A
330
2AC
100
AcDbEntity
  8
SAFETY
  6
DASHED
 48
5.0
100
AcDbVertex
100
AcDb2dVertex
 10
1500.000000738229
 20
0.00000499583075
 30
-1379.051287506078
  0
VERTEX
  5
65B
330
2AC
100
AcDbEntity
  8
SAFETY
  6
DASHED
 48
5.0
100
AcDbVertex
100
AcDb2dVertex
 10
2269.000000738229
 20
0.00000499583075
 30
-1379.051287506078
 42
0.4118663669756752
  0
VERTEX
  5
65C
330
2AC
100
AcDbEntity
  8
SAFETY
  6
DASHED
 48
5.0
100
AcDbVertex
100
AcDb2dVertex
 10
3769.000000738229
 20
1500.00000499583
 30
-1379.051287506078
  0
VERTEX
  5
65D
330
2AC
100
AcDbEntity
  8
SAFETY
  6
DASHED
 48
5.0
100
AcDbVertex
100
AcDb2dVertex
 10
3769.000000738229
 20
2001.926575553873
 30
-1379.051287506078
 42
0.3994440167136577
  0
VERTEX
  5
65E
330
2AC
100
AcDbEntity
  8
SAFETY
  6
DASHED
 48
5.0
100
AcDbVertex
100
AcDb2dVertex
 10
5193.00000073823
 20
3500.000004995836
 30
-1379.051287506078
  0
VERTEX
  5
65F
330
2AC
100
AcDbEntity
  8
SAFETY
  6
DASHED
 48
5.0
100
AcDbVertex
100
AcDb2dVertex
 10
5193.00000073823
 20
4226.000004995836
 30
-1379.051287506078
 42
0.4142135623730951
  0
SEQEND
  5
660
330
2AC
100
AcDbEntity
  8
SAFETY
  6
DASHED
 48
5.0
  0
LINE
  5
2AD
330
28B
100
AcDbEntity
  8
OBJECT
100
AcDbLine
 10
2253.500000738229
 20
3482.000004995834
 30
-1379.051287506078
 11
2253.500000738229
 21
2599.000004995834
 31
-1379.051287506078
  0
LINE
  5
2AE
330
28B
100
AcDbEntity
  8
OBJECT
100
AcDbLine
 10
2219.500000738229
 20
2599.000004995834
 30
-1379.051287506078
 11
2219.500000738229
 21
3482.000004995834
 31
-1379.051287506078
  0
POLYLINE
  5
2AF
330
28B
100
AcDbEntity
  8
OBJECT
100
AcDb2dPolyline
 66
     1
 10
0.0
 20
0.0
 30
-1379.051287506078
  0
VERTEX
  5
661
330
2AF
100
AcDbEntity
  8
OBJECT
100
AcDbVertex
100
AcDb2dVertex
 10
2188.000000738229
 20
3485.500004995836
 30
-1379.051287506078
  0
VERTEX
  5
662
330
2AF
100
AcDbEntity
  8
OBJECT
100
AcDbVertex
100
AcDb2dVertex
 10
2188.000000738229
 20
2595.500004995836
 30
-1379.051287506078
  0
SEQEND
  5
663
330
2AF
100
AcDbEntity
  8
OBJECT
  0
POLYLINE
  5
2B0
330
28B
100
AcDbEntity
  8
OBJECT
100
AcDb2dPolyline
 66
     1
 10
0.0
 20
0.0
 30
-1379.051287506078
 70
     1
  0
VERTEX
  5
664
330
2B0
100
AcDbEntity
  8
OBJECT
100
AcDbVertex
100
AcDb2dVertex
 10
1943.000000738229
 20
2891.500004995834
 30
-1379.051287506078
  0
VERTEX
  5
665
330
2B0
100
AcDbEntity
  8
OBJECT
100
AcDbVertex
100
AcDb2dVertex
 10
2153.000000738229
 20
2891.500004995834
 30
-1379.051287506078
  0
VERTEX
  5
666
330
2B0
100
AcDbEntity
  8
OBJECT
100
AcDbVertex
100
AcDb2dVertex
 10
2153.000000738229
 20
2857.500004995834
 30
-1379.051287506078
  0
VERTEX
  5
667
330
2B0
100
AcDbEntity
  8
OBJECT
100
AcDbVertex
100
AcDb2dVertex
 10
1943.000000738229
 20
2857.500004995834
 30
-1379.051287506078
  0
SEQEND
  5
668
330
2B0
100
AcDbEntity
  8
OBJECT
  0
POLYLINE
  5
2B1
330
28B
100
AcDbEntity
  8
OBJECT
100
AcDb2dPolyline
 66
     1
 10
0.0
 20
0.0
 30
-1379.051287506078
  0
VERTEX
  5
669
330
2B1
100
AcDbEntity
  8
OBJECT
100
AcDbVertex
100
AcDb2dVertex
 10
1836.000000738229
 20
2899.500004995834
 30
-1379.051287506078
  0
VERTEX
  5
66A
330
2B1
100
AcDbEntity
  8
OBJECT
100
AcDbVertex
100
AcDb2dVertex
 10
1834.000000738229
 20
2899.500004995834
 30
-1379.051287506078
 42
0.4142135623730952
  0
VERTEX
  5
66B
330
2B1
100
AcDbEntity
  8
OBJECT
100
AcDbVertex
100
AcDb2dVertex
 10
1826.000000738229
 20
2891.500004995834
 30
-1379.051287506078
  0
VERTEX
  5
66C
330
2B1
100
AcDbEntity
  8
OBJECT
100
AcDbVertex
100
AcDb2dVertex
 10
1826.000000738229
 20
2857.500004995834
 30
-1379.051287506078
 42
0.4142135623730952
  0
VERTEX
  5
66D
330
2B1
100
AcDbEntity
  8
OBJECT
100
AcDbVertex
100
AcDb2dVertex
 10
1834.000000738229
 20
2849.500004995833
 30
-1379.051287506078
  0
VERTEX
  5
66E
330
2B1
100
AcDbEntity
  8
OBJECT
100
AcDbVertex
100
AcDb2dVertex
 10
1836.000000738229
 20
2849.500004995833
 30
-1379.051287506078
  0
SEQEND
  5
66F
330
2B1
100
AcDbEntity
  8
OBJECT
  0
POLYLINE
  5
2B2
330
28B
100
AcDbEntity
  8
OBJECT
100
AcDb2dPolyline
 66
     1
 10
0.0
 20
0.0
 30
-1379.051287506078
  0
VERTEX
  5
670
330
2B2
100
AcDbEntity
  8
OBJECT
100
AcDbVertex
100
AcDb2dVertex
 10
1933.000000738229
 20
2899.500004995834
 30
-1379.051287506078
  0
VERTEX
  5
671
330
2B2
100
AcDbEntity
  8
OBJECT
100
AcDbVertex
100
AcDb2dVertex
 10
1935.000000738229
 20
2899.500004995834
 30
-1379.051287506078
 42
-0.4142135623730952
  0
VERTEX
  5
672
330
2B2
100
AcDbEntity
  8
OBJECT
100
AcDbVertex
100
AcDb2dVertex
 10
1943.000000738229
 20
2891.500004995834
 30
-1379.051287506078
  0
VERTEX
  5
673
330
2B2
100
AcDbEntity
  8
OBJECT
100
AcDbVertex
100
AcDb2dVertex
 10
1943.000000738229
 20
2857.500004995834
 30
-1379.051287506078
 42
-0.4142135623730952
  0
VERTEX
  5
674
330
2B2
100
AcDbEntity
  8
OBJECT
100
AcDbVertex
100
AcDb2dVertex
 10
1935.000000738229
 20
2849.500004995833
 30
-1379.051287506078
  0
VERTEX
  5
675
330
2B2
100
AcDbEntity
  8
OBJECT
100
AcDbVertex
100
AcDb2dVertex
 10
1933.000000738229
 20
2849.500004995833
 30
-1379.051287506078
  0
SEQEND
  5
676
330
2B2
100
AcDbEntity
  8
OBJECT
  0
POLYLINE
  5
2B3
330
28B
100
AcDbEntity
  8
OBJECT
100
AcDb2dPolyline
 66
     1
 10
0.0
 20
0.0
 30
-1379.051287506078
  0
VERTEX
  5
677
330
2B3
100
AcDbEntity
  8
OBJECT
100
AcDbVertex
100
AcDb2dVertex
 10
2163.000000738229
 20
2899.500004995834
 30
-1379.051287506078
  0
VERTEX
  5
678
330
2B3
100
AcDbEntity
  8
OBJECT
100
AcDbVertex
100
AcDb2dVertex
 10
2161.000000738229
 20
2899.500004995834
 30
-1379.051287506078
 42
0.4142135623730952
  0
VERTEX
  5
679
330
2B3
100
AcDbEntity
  8
OBJECT
100
AcDbVertex
100
AcDb2dVertex
 10
2153.000000738229
 20
2891.500004995834
 30
-1379.051287506078
  0
VERTEX
  5
67A
330
2B3
100
AcDbEntity
  8
OBJECT
100
AcDbVertex
100
AcDb2dVertex
 10
2153.000000738229
 20
2857.500004995834
 30
-1379.051287506078
 42
0.4142135623730952
  0
VERTEX
  5
67B
330
2B3
100
AcDbEntity
  8
OBJECT
100
AcDbVertex
100
AcDb2dVertex
 10
2161.000000738229
 20
2849.500004995833
 30
-1379.051287506078
  0
VERTEX
  5
67C
330
2B3
100
AcDbEntity
  8
OBJECT
100
AcDbVertex
100
AcDb2dVertex
 10
2163.000000738229
 20
2849.500004995833
 30
-1379.051287506078
  0
SEQEND
  5
67D
330
2B3
100
AcDbEntity
  8
OBJECT
  0
POLYLINE
  5
2B4
330
28B
100
AcDbEntity
  8
OBJECT
100
AcDb2dPolyline
 66
     1
 10
0.0
 20
0.0
 30
-1379.051287506078
  0
VERTEX
  5
67E
330
2B4
100
AcDbEntity
  8
OBJECT
100
AcDbVertex
100
AcDb2dVertex
 10
1933.000000738229
 20
3589.000004995833
 30
-1379.051287506078
  0
VERTEX
  5
67F
330
2B4
100
AcDbEntity
  8
OBJECT
100
AcDbVertex
100
AcDb2dVertex
 10
1933.000000738229
 20
1455.500004995833
 30
-1379.051287506078
  0
VERTEX
  5
680
330
2B4
100
AcDbEntity
  8
OBJECT
100
AcDbVertex
100
AcDb2dVertex
 10
1836.000000738229
 20
1455.500004995833
 30
-1379.051287506078
  0
VERTEX
  5
681
330
2B4
100
AcDbEntity
  8
OBJECT
100
AcDbVertex
100
AcDb2dVertex
 10
1836.000000738229
 20
3589.000004995833
 30
-1379.051287506078
  0
SEQEND
  5
682
330
2B4
100
AcDbEntity
  8
OBJECT
  0
POLYLINE
  5
2B5
330
28B
100
AcDbEntity
  8
OBJECT
100
AcDb2dPolyline
 66
     1
 10
0.0
 20
0.0
 30
-1379.051287506078
  0
VERTEX
  5
683
330
2B5
100
AcDbEntity
  8
OBJECT
100
AcDbVertex
100
AcDb2dVertex
 10
2188.000000738229
 20
1485.500004995835
 30
-1379.051287506078
  0
VERTEX
  5
684
330
2B5
100
AcDbEntity
  8
OBJECT
100
AcDbVertex
100
AcDb2dVertex
 10
2188.000000738229
 20
1433.500004995833
 30
-1379.051287506078
  0
VERTEX
  5
685
330
2B5
100
AcDbEntity
  8
OBJECT
100
AcDbVertex
100
AcDb2dVertex
 10
2163.000000738229
 20
1433.500004995833
 30
-1379.051287506078
  0
VERTEX
  5
686
330
2B5
100
AcDbEntity
  8
OBJECT
100
AcDbVertex
100
AcDb2dVertex
 10
2163.000000738229
 20
3589.000004995833
 30
-1379.051287506078
  0
SEQEND
  5
687
330
2B5
100
AcDbEntity
  8
OBJECT
  0
LINE
  5
2B6
330
28B
100
AcDbEntity
  8
OBJECT
100
AcDbLine
 10
1549.500000738229
 20
3482.000004995834
 30
-1379.051287506078
 11
1549.500000738229
 21
2599.000004995834
 31
-1379.051287506078
  0
LINE
  5
2B7
330
28B
100
AcDbEntity
  8
OBJECT
100
AcDbLine
 10
1515.500000738229
 20
2599.000004995834
 30
-1379.051287506078
 11
1515.500000738229
 21
3482.000004995834
 31
-1379.051287506078
  0
POLYLINE
  5
2B8
330
28B
100
AcDbEntity
  8
OBJECT
100
AcDb2dPolyline
 66
     1
 10
0.0
 20
0.0
 30
-1379.051287506078
  0
VERTEX
  5
688
330
2B8
100
AcDbEntity
  8
OBJECT
100
AcDbVertex
100
AcDb2dVertex
 10
1581.000000738229
 20
2595.500004995836
 30
-1379.051287506078
  0
VERTEX
  5
689
330
2B8
100
AcDbEntity
  8
OBJECT
100
AcDbVertex
100
AcDb2dVertex
 10
1581.000000738229
 20
3485.500004995836
 30
-1379.051287506078
  0
SEQEND
  5
68A
330
2B8
100
AcDbEntity
  8
OBJECT
  0
POLYLINE
  5
2B9
330
28B
100
AcDbEntity
  8
OBJECT
100
AcDb2dPolyline
 66
     1
 10
0.0
 20
0.0
 30
-1379.051287506078
  0
VERTEX
  5
68B
330
2B9
100
AcDbEntity
  8
OBJECT
100
AcDbVertex
100
AcDb2dVertex
 10
1606.000000738229
 20
2899.500004995834
 30
-1379.051287506078
  0
VERTEX
  5
68C
330
2B9
100
AcDbEntity
  8
OBJECT
100
AcDbVertex
100
AcDb2dVertex
 10
1608.000000738229
 20
2899.500004995834
 30
-1379.051287506078
 42
-0.4142135623730952
  0
VERTEX
  5
68D
330
2B9
100
AcDbEntity
  8
OBJECT
100
AcDbVertex
100
AcDb2dVertex
 10
1616.000000738229
 20
2891.500004995834
 30
-1379.051287506078
  0
VERTEX
  5
68E
330
2B9
100
AcDbEntity
  8
OBJECT
100
AcDbVertex
100
AcDb2dVertex
 10
1616.000000738229
 20
2857.500004995834
 30
-1379.051287506078
 42
-0.4142135623730952
  0
VERTEX
  5
68F
330
2B9
100
AcDbEntity
  8
OBJECT
100
AcDbVertex
100
AcDb2dVertex
 10
1608.000000738229
 20
2849.500004995833
 30
-1379.051287506078
  0
VERTEX
  5
690
330
2B9
100
AcDbEntity
  8
OBJECT
100
AcDbVertex
100
AcDb2dVertex
 10
1606.000000738229
 20
2849.500004995833
 30
-1379.051287506078
  0
SEQEND
  5
691
330
2B9
100
AcDbEntity
  8
OBJECT
  0
POLYLINE
  5
2BA
330
28B
100
AcDbEntity
  8
OBJECT
100
AcDb2dPolyline
 66
     1
 10
0.0
 20
0.0
 30
-1379.051287506078
  0
VERTEX
  5
692
330
2BA
100
AcDbEntity
  8
OBJECT
100
AcDbVertex
100
AcDb2dVertex
 10
1606.000000738229
 20
3589.000004995833
 30
-1379.051287506078
  0
VERTEX
  5
693
330
2BA
100
AcDbEntity
  8
OBJECT
100
AcDbVertex
100
AcDb2dVertex
 10
1606.000000738229
 20
1433.500004995833
 30
-1379.051287506078
  0
VERTEX
  5
694
330
2BA
100
AcDbEntity
  8
OBJECT
100
AcDbVertex
100
AcDb2dVertex
 10
1581.000000738229
 20
1433.500004995833
 30
-1379.051287506078
  0
VERTEX
  5
695
330
2BA
100
AcDbEntity
  8
OBJECT
100
AcDbVertex
100
AcDb2dVertex
 10
1581.000000738229
 20
1485.500004995835
 30
-1379.051287506078
  0
SEQEND
  5
696
330
2BA
100
AcDbEntity
  8
OBJECT
  0
POLYLINE
  5
2BB
330
28B
100
AcDbEntity
  8
OBJECT
100
AcDb2dPolyline
 66
     1
 10
0.0
 20
0.0
 30
-1379.051287506078
 70
     1
  0
VERTEX
  5
697
330
2BB
100
AcDbEntity
  8
OBJECT
100
AcDbVertex
100
AcDb2dVertex
 10
1616.000000738229
 20
2891.500004995834
 30
-1379.051287506078
  0
VERTEX
  5
698
330
2BB
100
AcDbEntity
  8
OBJECT
100
AcDbVertex
100
AcDb2dVertex
 10
1826.000000738229
 20
2891.500004995834
 30
-1379.051287506078
  0
VERTEX
  5
699
330
2BB
100
AcDbEntity
  8
OBJECT
100
AcDbVertex
100
AcDb2dVertex
 10
1826.000000738229
 20
2857.500004995834
 30
-1379.051287506078
  0
VERTEX
  5
69A
330
2BB
100
AcDbEntity
  8
OBJECT
100
AcDbVertex
100
AcDb2dVertex
 10
1616.000000738229
 20
2857.500004995834
 30
-1379.051287506078
  0
SEQEND
  5
69B
330
2BB
100
AcDbEntity
  8
OBJECT
  0
POLYLINE
  5
2BC
330
28B
100
AcDbEntity
  8
OBJECT
100
AcDb2dPolyline
 66
     1
 10
0.0
 20
0.0
 30
-1379.051287506078
 70
     1
  0
VERTEX
  5
69C
330
2BC
100
AcDbEntity
  8
OBJECT
100
AcDbVertex
100
AcDb2dVertex
 10
1616.000000738229
 20
1557.500004995834
 30
-1379.051287506078
  0
VERTEX
  5
69D
330
2BC
100
AcDbEntity
  8
OBJECT
100
AcDbVertex
100
AcDb2dVertex
 10
1826.000000738229
 20
1557.500004995834
 30
-1379.051287506078
  0
VERTEX
  5
69E
330
2BC
100
AcDbEntity
  8
OBJECT
100
AcDbVertex
100
AcDb2dVertex
 10
1826.000000738229
 20
1523.500004995834
 30
-1379.051287506078
  0
VERTEX
  5
69F
330
2BC
100
AcDbEntity
  8
OBJECT
100
AcDbVertex
100
AcDb2dVertex
 10
1616.000000738229
 20
1523.500004995834
 30
-1379.051287506078
  0
SEQEND
  5
6A0
330
2BC
100
AcDbEntity
  8
OBJECT
  0
POLYLINE
  5
2BD
330
28B
100
AcDbEntity
  8
OBJECT
100
AcDb2dPolyline
 66
     1
 10
0.0
 20
0.0
 30
-1379.051287506078
 70
     1
  0
VERTEX
  5
6A1
330
2BD
100
AcDbEntity
  8
OBJECT
100
AcDbVertex
100
AcDb2dVertex
 10
1616.000000738229
 20
1889.500004995834
 30
-1379.051287506078
  0
VERTEX
  5
6A2
330
2BD
100
AcDbEntity
  8
OBJECT
100
AcDbVertex
100
AcDb2dVertex
 10
1826.000000738229
 20
1889.500004995834
 30
-1379.051287506078
  0
VERTEX
  5
6A3
330
2BD
100
AcDbEntity
  8
OBJECT
100
AcDbVertex
100
AcDb2dVertex
 10
1826.000000738229
 20
1855.500004995834
 30
-1379.051287506078
  0
VERTEX
  5
6A4
330
2BD
100
AcDbEntity
  8
OBJECT
100
AcDbVertex
100
AcDb2dVertex
 10
1616.000000738229
 20
1855.500004995834
 30
-1379.051287506078
  0
SEQEND
  5
6A5
330
2BD
100
AcDbEntity
  8
OBJECT
  0
POLYLINE
  5
2BE
330
28B
100
AcDbEntity
  8
OBJECT
100
AcDb2dPolyline
 66
     1
 10
0.0
 20
0.0
 30
-1379.051287506078
 70
     1
  0
VERTEX
  5
6A6
330
2BE
100
AcDbEntity
  8
OBJECT
100
AcDbVertex
100
AcDb2dVertex
 10
1616.000000738229
 20
2223.500004995834
 30
-1379.051287506078
  0
VERTEX
  5
6A7
330
2BE
100
AcDbEntity
  8
OBJECT
100
AcDbVertex
100
AcDb2dVertex
 10
1826.000000738229
 20
2223.500004995834
 30
-1379.051287506078
  0
VERTEX
  5
6A8
330
2BE
100
AcDbEntity
  8
OBJECT
100
AcDbVertex
100
AcDb2dVertex
 10
1826.000000738229
 20
2189.500004995834
 30
-1379.051287506078
  0
VERTEX
  5
6A9
330
2BE
100
AcDbEntity
  8
OBJECT
100
AcDbVertex
100
AcDb2dVertex
 10
1616.000000738229
 20
2189.500004995834
 30
-1379.051287506078
  0
SEQEND
  5
6AA
330
2BE
100
AcDbEntity
  8
OBJECT
  0
POLYLINE
  5
2BF
330
28B
100
AcDbEntity
  8
OBJECT
100
AcDb2dPolyline
 66
     1
 10
0.0
 20
0.0
 30
-1379.051287506078
 70
     1
  0
VERTEX
  5
6AB
330
2BF
100
AcDbEntity
  8
OBJECT
100
AcDbVertex
100
AcDb2dVertex
 10
1616.000000738229
 20
2557.500004995834
 30
-1379.051287506078
  0
VERTEX
  5
6AC
330
2BF
100
AcDbEntity
  8
OBJECT
100
AcDbVertex
100
AcDb2dVertex
 10
1826.000000738229
 20
2557.500004995834
 30
-1379.051287506078
  0
VERTEX
  5
6AD
330
2BF
100
AcDbEntity
  8
OBJECT
100
AcDbVertex
100
AcDb2dVertex
 10
1826.000000738229
 20
2523.500004995834
 30
-1379.051287506078
  0
VERTEX
  5
6AE
330
2BF
100
AcDbEntity
  8
OBJECT
100
AcDbVertex
100
AcDb2dVertex
 10
1616.000000738229
 20
2523.500004995834
 30
-1379.051287506078
  0
SEQEND
  5
6AF
330
2BF
100
AcDbEntity
  8
OBJECT
  0
LINE
  5
2C0
330
28B
100
AcDbEntity
  8
OBJECT
100
AcDbLine
 10
1549.500000738229
 20
2482.000004995834
 30
-1379.051287506078
 11
1549.500000738229
 21
1599.000004995834
 31
-1379.051287506078
  0
LINE
  5
2C1
330
28B
100
AcDbEntity
  8
OBJECT
100
AcDbLine
 10
1515.500000738229
 20
1599.000004995834
 30
-1379.051287506078
 11
1515.500000738229
 21
2482.000004995834
 31
-1379.051287506078
  0
POLYLINE
  5
2C2
330
28B
100
AcDbEntity
  8
OBJECT
100
AcDb2dPolyline
 66
     1
 10
0.0
 20
0.0
 30
-1379.051287506078
  0
VERTEX
  5
6B0
330
2C2
100
AcDbEntity
  8
OBJECT
100
AcDbVertex
100
AcDb2dVertex
 10
1581.000000738229
 20
1595.500004995836
 30
-1379.051287506078
  0
VERTEX
  5
6B1
330
2C2
100
AcDbEntity
  8
OBJECT
100
AcDbVertex
100
AcDb2dVertex
 10
1581.000000738229
 20
2485.500004995836
 30
-1379.051287506078
  0
SEQEND
  5
6B2
330
2C2
100
AcDbEntity
  8
OBJECT
  0
POLYLINE
  5
2C3
330
28B
100
AcDbEntity
  8
OBJECT
100
AcDb2dPolyline
 66
     1
 10
0.0
 20
0.0
 30
-1379.051287506078
  0
VERTEX
  5
6B3
330
2C3
100
AcDbEntity
  8
OBJECT
100
AcDbVertex
100
AcDb2dVertex
 10
1587.500000738231
 20
1516.885626718142
 30
-1379.051287506078
 42
0.2482675702512566
  0
VERTEX
  5
6B4
330
2C3
100
AcDbEntity
  8
OBJECT
100
AcDbVertex
100
AcDb2dVertex
 10
1591.000000738182
 20
1523.50000499577
 30
-1379.051287506078
  0
VERTEX
  5
6B5
330
2C3
100
AcDbEntity
  8
OBJECT
100
AcDbVertex
100
AcDb2dVertex
 10
1591.000000738182
 20
1557.500004995771
 30
-1379.051287506078
  0
VERTEX
  5
6B6
330
2C3
100
AcDbEntity
  8
OBJECT
100
AcDbVertex
100
AcDb2dVertex
 10
1591.000000738182
 20
1557.500004995771
 30
-1379.051287506078
 42
0.2482675702512566
  0
VERTEX
  5
6B7
330
2C3
100
AcDbEntity
  8
OBJECT
100
AcDbVertex
100
AcDb2dVertex
 10
1587.500000738231
 20
1564.114383273397
 30
-1379.051287506078
  0
SEQEND
  5
6B8
330
2C3
100
AcDbEntity
  8
OBJECT
  0
LINE
  5
2C4
330
28B
100
AcDbEntity
  8
OBJECT
100
AcDbLine
 10
1587.500000738229
 20
1591.500004995836
 30
-1379.051287506078
 11
1587.500000738226
 21
1489.500004995838
 31
-1379.051287506078
  0
POLYLINE
  5
2C5
330
28B
100
AcDbEntity
  8
OBJECT
100
AcDb2dPolyline
 66
     1
 10
0.0
 20
0.0
 30
-1379.051287506078
  0
VERTEX
  5
6B9
330
2C5
100
AcDbEntity
  8
OBJECT
100
AcDbVertex
100
AcDb2dVertex
 10
1606.000000738229
 20
1565.500004995834
 30
-1379.051287506078
  0
VERTEX
  5
6BA
330
2C5
100
AcDbEntity
  8
OBJECT
100
AcDbVertex
100
AcDb2dVertex
 10
1608.000000738229
 20
1565.500004995834
 30
-1379.051287506078
 42
-0.4142135623730952
  0
VERTEX
  5
6BB
330
2C5
100
AcDbEntity
  8
OBJECT
100
AcDbVertex
100
AcDb2dVertex
 10
1616.000000738229
 20
1557.500004995834
 30
-1379.051287506078
  0
VERTEX
  5
6BC
330
2C5
100
AcDbEntity
  8
OBJECT
100
AcDbVertex
100
AcDb2dVertex
 10
1616.000000738229
 20
1523.500004995834
 30
-1379.051287506078
 42
-0.4142135623730952
  0
VERTEX
  5
6BD
330
2C5
100
AcDbEntity
  8
OBJECT
100
AcDbVertex
100
AcDb2dVertex
 10
1608.000000738229
 20
1515.500004995834
 30
-1379.051287506078
  0
VERTEX
  5
6BE
330
2C5
100
AcDbEntity
  8
OBJECT
100
AcDbVertex
100
AcDb2dVertex
 10
1606.000000738229
 20
1515.500004995834
 30
-1379.051287506078
  0
SEQEND
  5
6BF
330
2C5
100
AcDbEntity
  8
OBJECT
  0
LINE
  5
2C6
330
28B
100
AcDbEntity
  8
OBJECT
100
AcDbLine
 10
1477.500000738229
 20
1489.50000499583
 30
-1379.051287506078
 11
1477.500000738229
 21
1591.500004995836
 31
-1379.051287506078
  0
REGION
  5
2C7
330
28B
100
AcDbEntity
  8
OBJECT
100
AcDbModelerGeometry
 70
     1
  1
noi gi n o          
  1
=0;& {n {m {rn {rn |
  1
9@=0;&r3(;r>++-6= {rn {l {rn {o |
  1
3*2/ {k {rn {j {o |
  1
-:9@)+r3(;r>++-6= {rn {rn {n {o {i {h |
  1
-:9@)+r3(;r>++-6= {rn {rn {rn {m {i {h |
  1
,7:33 {g {rn {rn {f {m |
  1
-:961:2:1+ {rn o o o o mqkilgmljjifooomkk o o k o o o o o o o o |
  1
):-+:'@+:2/3>+: {rn l o n g |
  1
-:9@)+r3(;r>++-6= {rn {rn {rn {j {i {h |
  1
9><: {no {rn {nn {j {rn {nm 90-(>-; ;0*=3: 0*+ |
  1
99><:r3(;r>++-6= {rn {nl {rn {f |
  1
300/ {rn {nk {nj {f |
  1
/3>1:r,*-9><: {rn njglqjooooohlgmlnk njfjqjooookffjglim rnlhfqojnmghjoiohfm o o n n o o n V V V V |
  1
-:9@)+r3(;r>++-6= {rn {rn {no {f {i {rn |
  1
300/ {rn {ni {nh {f |
  1
<0:;8: {ng {nf {mo {rn {mn o {nn {rn |
  1
300/ {rn {rn {mm {f |
  1
<0:;8: {ml {nh {nh {rn {mk n {nk {rn |
  1
<0/>-r3(;r>++-6= {rn {rn {rn {nj |
  1
<0:;8: {mj {mi {nj {rn {mh o {nn {rn |
  1
<0:;8: {mg {nj {mf {rn {lo o {nn {rn |
  1
:;8: {ln {lm {ll {nj {lk o |
  1
<0:;8: {lj {mm {mm {rn {li n {ni {rn |
  1
<0/>-r3(;r>++-6= {rn {rn {rn {nh |
  1
:;8: {lh {lg {lg {nh {lf o |
  1
<0/>-r3(;r>++-6= {rn {rn {rn {nf |
  1
<0:;8: {ko {kn {nf {rn {km o {nn {rn |
  1
:;8: {kl {ll {kk {nf {kj o |
  1
<0/>-r3(;r>++-6= {rn {rn {rn {mo |
  1
<0:;8: {ki {mo {kh {rn {kg o {nn {rn |
  1
:;8: {kf {jo {lm {mo {jn o |
  1
:/>-r3(;r>++-6= {rn {rn {rn {mn |
  1
):-+:' {rn {mn {jm |
  1
):-+:' {rn {mn {jl |
  1
,+->687+r<*-): {rn nkgnqjooooohlgmmfi njfjqjooookffjglim rnlhfqojnmghjoiohfm rn o o V V |
  1
<0/>-r3(;r>++-6= {rn {rn {rn {mm |
  1
:;8: {jk {jj {jj {mm {ji o |
  1
:/>-r3(;r>++-6= {rn {rn {rn {mk |
  1
):-+:' {rn {mk {jh |
  1
:336/,:r<*-): {rn njomqjooooohlgmmhg njnoqjooookffjglim rnlhfqojnmghjoiohfm o o n nk o o n V V |
  1
<0/>-r3(;r>++-6= {rn {rn {rn {mi |
  1
<0:;8: {jg {jf {mi {rn {io o {nn {rn |
  1
:;8: {in {kk {im {mi {il o |
  1
:/>-r3(;r>++-6= {rn {rn {rn {mh |
  1
):-+:' {rn {mh {ik |
  1
:336/,:r<*-): {rn nkgnqjooooohlgmmfi njfnqjooookffjglim rnlhfqojnmghjoiohfm o o n rmqgmgkmhnmkhkingfg mqgmgkmhnmkhkingfg o n V V |
  1
<0/>-r3(;r>++-6= {rn {rn {rn {mf |
  1
<0:;8: {ij {mf {jf {rn {ii o {nn {rn |
  1
:;8: {ih {ig {jo {mf {if o |
  1
:/>-r3(;r>++-6= {rn {rn {rn {lo |
  1
):-+:' {rn {kg {ho |
  1
:336/,:r<*-): {rn njglqjooooohlgmlnk njfnqjooookffjglim rnlhfqojnmghjoiohfm o o n mqgmgkmhnmkhkinion mqgmgkmhnmkhkinion o n V V |
  1
/061+ {rn njglqjooooohlgmlnk njfjqjooookffjglim rnlhfqojnmghjoiohfm |
  1
/061+ {rn nkgnqjooooohlgmmfi njfjqjooookffjglim rnlhfqojnmghjoiohfm |
  1
:/>-r3(;r>++-6= {rn {rn {rn {li |
  1
):-+:' {rn {li {hn |
  1
:336/,:r<*-): {rn njimqjooooohlgmlnk njhoqjooookffjglim rnlhfqojnmghjoiohfm o o n rnk o o n V V |
  1
/061+ {rn njniqjooooohlgmmhg njnoqjooookffjglim rnlhfqojnmghjoiohfm |
  1
<0/>-r3(;r>++-6= {rn {rn {rn {kn |
  1
<0:;8: {hm {kh {kn {rn {hl o {nn {rn |
  1
:;8: {hk {im {hj {kn {hi o |
  1
:/>-r3(;r>++-6= {rn {rn {rn {km |
  1
):-+:' {rn {km {hh |
  1
,+->687+r<*-): {rn nkhhqjooooohlgmmfi nkgfqjooookffjglim rnlhfqojnmghjoiohfm o rn o V V |
  1
/061+ {rn nkhhqjooooohlgmmfi njfnqjooookffjglim rnlhfqojnmghjoiohfm |
  1
<0/>-r3(;r>++-6= {rn {rn {rn {kh |
  1
:;8: {hg {hf {ig {kh {go o |
  1
:/>-r3(;r>++-6= {rn {rn {rn {kg |
  1
):-+:' {rn {ii {gn |
  1
,+->687+r<*-): {rn njghqjooooohlgmlnk njfnqjooookffjglim rnlhfqojnmghjoiohfm mqihkfgkknifhfmnmh:ronk n o V V |
  1
/061+ {rn njghqjooooohlgmlnk njfnqjooookffjglim rnlhfqojnmghjoiohfm |
  1
/061+ {rn njkgqjooooohlgmlnk njhoqjooookffjglim rnlhfqojnmghjoiohfm |
  1
<0/>-r3(;r>++-6= {rn {rn {rn {jf |
  1
:;8: {gm {hj {hf {jf {gl o |
  1
:/>-r3(;r>++-6= {rn {rn {rn {io |
  1
):-+:' {rn {io {gk |
  1
:336/,:r<*-): {rn nkgnqjooooohlgmmfi nkgfqjooookffjglim rnlhfqojnmghjoiohfm o o n rmqgmgkmhnmkhkingkn rmqgmgkmhnmkhkingkn o n V V |
  1
/061+ {rn nkhhqjooooohlgmmfi nkgfqjooookffjglim rnlhfqojnmghjoiohfm |
  1
:/>-r3(;r>++-6= {rn {rn {rn {ii |
  1
):-+:' {rn {hl {gj |
  1
:336/,:r<*-): {rn njglqjooooohlgmmhg nkgfqjooookffjglim rnlhfqojnmghjoiohfm o o n mqgmgkmhnmkhkingfg rmqgmgkmhnmkhkingfg o n V V |
  1
/061+ {rn njghqjooooohlgmmhg nkgfqjooookffjglim rnlhfqojnmghjoiohfm |
  1
:/>-r3(;r>++-6= {rn {rn {rn {hl |
  1
,+->687+r<*-): {rn njglqjooooohlgmmhg nkgjqjooookffjglim rnlhfqojnmghjoiohfm n kqkjglohlinilmokoj:ronj o V V |
  1
/061+ {rn nkgnqjooooohlgmmfi nkgjqjooookffjglim rnlhfqojnmghjoiohfm |
  1
/061+ {rn njglqjooooohlgmmhg nkgjqjooookffjglim rnlhfqojnmghjoiohfm |
  0
CIRCLE
  5
2C8
330
28B
100
AcDbEntity
  8
OBJECT
100
AcDbCircle
 10
1502.500000738229
 20
1510.500004995829
 30
-1379.051287506078
 40
14.0
  0
LINE
  5
2C9
330
28B
100
AcDbEntity
  8
OBJECT
100
AcDbLine
 10
1583.500000738228
 20
1485.500004995834
 30
-1379.051287506078
 11
1481.500000738229
 21
1485.50000499583
 31
-1379.051287506078
  0
ARC
  5
2CA
330
28B
100
AcDbEntity
  8
OBJECT
100
AcDbCircle
 10
1481.500000738229
 20
1489.50000499583
 30
-1379.051287506078
 40
3.999999999999958
100
AcDbArc
 50
180.0
 51
270.0
  0
ARC
  5
2CB
330
28B
100
AcDbEntity
  8
OBJECT
100
AcDbCircle
 10
1583.500000738228
 20
1489.500004995838
 30
-1379.051287506078
 40
4.0
100
AcDbArc
 50
270.0
 51
0.0
  0
LINE
  5
2CC
330
28B
100
AcDbEntity
  8
OBJECT
100
AcDbLine
 10
1481.500000738229
 20
1595.500004995836
 30
-1379.051287506078
 11
1583.500000738229
 21
1595.500004995836
 31
-1379.051287506078
  0
ARC
  5
2CD
330
28B
100
AcDbEntity
  8
OBJECT
100
AcDbCircle
 10
1481.500000738231
 20
1591.500004995836
 30
-1379.051287506078
 40
4.0
100
AcDbArc
 50
90.0
 51
180.0
  0
LINE
  5
2CE
330
28B
100
AcDbEntity
  8
OBJECT
 62
     0
100
AcDbLine
 10
1556.114379015889
 20
1595.500004995836
 30
-1379.051287506078
 11
1508.885622460567
 21
1595.500004995836
 31
-1379.051287506078
  0
POLYLINE
  5
2CF
330
28B
100
AcDbEntity
  8
OBJECT
100
AcDb2dPolyline
 66
     1
 10
0.0
 20
0.0
 30
-1379.051287506078
  0
VERTEX
  5
6C0
330
2CF
100
AcDbEntity
  8
OBJECT
100
AcDbVertex
100
AcDb2dVertex
 10
1508.885622460567
 20
1595.500004995836
 30
-1379.051287506078
 42
-0.2482675702531844
  0
VERTEX
  5
6C1
330
2CF
100
AcDbEntity
  8
OBJECT
100
AcDbVertex
100
AcDb2dVertex
 10
1515.500000738229
 20
1599.000004995834
 30
-1379.051287506078
  0
VERTEX
  5
6C2
330
2CF
100
AcDbEntity
  8
OBJECT
100
AcDbVertex
100
AcDb2dVertex
 10
1549.500000738229
 20
1599.000004995834
 30
-1379.051287506078
 42
-0.2482675702531731
  0
VERTEX
  5
6C3
330
2CF
100
AcDbEntity
  8
OBJECT
100
AcDbVertex
100
AcDb2dVertex
 10
1556.114379015889
 20
1595.500004995836
 30
-1379.051287506078
 42
-0.2482675702531731
  0
SEQEND
  5
6C4
330
2CF
100
AcDbEntity
  8
OBJECT
  0
CIRCLE
  5
2D0
330
28B
100
AcDbEntity
  8
OBJECT
100
AcDbCircle
 10
1562.500000738229
 20
1570.500004995835
 30
-1379.051287506078
 40
14.0
  0
ARC
  5
2D1
330
28B
100
AcDbEntity
  8
OBJECT
100
AcDbCircle
 10
1583.500000738229
 20
1591.500004995836
 30
-1379.051287506078
 40
3.999999999999991
100
AcDbArc
 50
0.0
 51
90.0
  0
POLYLINE
  5
2D2
330
28B
100
AcDbEntity
  8
OBJECT
100
AcDb2dPolyline
 66
     1
 10
0.0
 20
0.0
 30
-1379.051287506078
  0
VERTEX
  5
6C5
330
2D2
100
AcDbEntity
  8
OBJECT
100
AcDbVertex
100
AcDb2dVertex
 10
1606.000000738229
 20
1897.500004995833
 30
-1379.051287506078
  0
VERTEX
  5
6C6
330
2D2
100
AcDbEntity
  8
OBJECT
100
AcDbVertex
100
AcDb2dVertex
 10
1608.000000738229
 20
1897.500004995833
 30
-1379.051287506078
 42
-0.4142135623730952
  0
VERTEX
  5
6C7
330
2D2
100
AcDbEntity
  8
OBJECT
100
AcDbVertex
100
AcDb2dVertex
 10
1616.000000738229
 20
1889.500004995834
 30
-1379.051287506078
  0
VERTEX
  5
6C8
330
2D2
100
AcDbEntity
  8
OBJECT
100
AcDbVertex
100
AcDb2dVertex
 10
1616.000000738229
 20
1855.500004995834
 30
-1379.051287506078
 42
-0.4142135623730952
  0
VERTEX
  5
6C9
330
2D2
100
AcDbEntity
  8
OBJECT
100
AcDbVertex
100
AcDb2dVertex
 10
1608.000000738229
 20
1847.500004995834
 30
-1379.051287506078
  0
VERTEX
  5
6CA
330
2D2
100
AcDbEntity
  8
OBJECT
100
AcDbVertex
100
AcDb2dVertex
 10
1606.000000738229
 20
1847.500004995834
 30
-1379.051287506078
  0
SEQEND
  5
6CB
330
2D2
100
AcDbEntity
  8
OBJECT
  0
POLYLINE
  5
2D3
330
28B
100
AcDbEntity
  8
OBJECT
100
AcDb2dPolyline
 66
     1
 10
0.0
 20
0.0
 30
-1379.051287506078
  0
VERTEX
  5
6CC
330
2D3
100
AcDbEntity
  8
OBJECT
100
AcDbVertex
100
AcDb2dVertex
 10
1606.000000738229
 20
2231.500004995834
 30
-1379.051287506078
  0
VERTEX
  5
6CD
330
2D3
100
AcDbEntity
  8
OBJECT
100
AcDbVertex
100
AcDb2dVertex
 10
1608.000000738229
 20
2231.500004995834
 30
-1379.051287506078
 42
-0.4142135623730952
  0
VERTEX
  5
6CE
330
2D3
100
AcDbEntity
  8
OBJECT
100
AcDbVertex
100
AcDb2dVertex
 10
1616.000000738229
 20
2223.500004995834
 30
-1379.051287506078
  0
VERTEX
  5
6CF
330
2D3
100
AcDbEntity
  8
OBJECT
100
AcDbVertex
100
AcDb2dVertex
 10
1616.000000738229
 20
2189.500004995834
 30
-1379.051287506078
 42
-0.4142135623730952
  0
VERTEX
  5
6D0
330
2D3
100
AcDbEntity
  8
OBJECT
100
AcDbVertex
100
AcDb2dVertex
 10
1608.000000738229
 20
2181.500004995834
 30
-1379.051287506078
  0
VERTEX
  5
6D1
330
2D3
100
AcDbEntity
  8
OBJECT
100
AcDbVertex
100
AcDb2dVertex
 10
1606.000000738229
 20
2181.500004995834
 30
-1379.051287506078
  0
SEQEND
  5
6D2
330
2D3
100
AcDbEntity
  8
OBJECT
  0
LINE
  5
2D4
330
28B
100
AcDbEntity
  8
OBJECT
100
AcDbLine
 10
1481.500000738229
 20
2595.500004995836
 30
-1379.051287506078
 11
1583.500000738229
 21
2595.500004995836
 31
-1379.051287506078
  0
LINE
  5
2D5
330
28B
100
AcDbEntity
  8
OBJECT
100
AcDbLine
 10
1583.500000738228
 20
2485.500004995834
 30
-1379.051287506078
 11
1481.500000738229
 21
2485.50000499583
 31
-1379.051287506078
  0
ARC
  5
2D6
330
28B
100
AcDbEntity
  8
OBJECT
100
AcDbCircle
 10
1481.500000738229
 20
2489.50000499583
 30
-1379.051287506078
 40
3.999999999999958
100
AcDbArc
 50
180.0
 51
270.0
  0
ARC
  5
2D7
330
28B
100
AcDbEntity
  8
OBJECT
100
AcDbCircle
 10
1481.500000738231
 20
2591.500004995836
 30
-1379.051287506078
 40
4.0
100
AcDbArc
 50
90.0
 51
180.0
  0
LINE
  5
2D8
330
28B
100
AcDbEntity
  8
OBJECT
100
AcDbLine
 10
1477.500000738229
 20
2489.50000499583
 30
-1379.051287506078
 11
1477.500000738229
 21
2591.500004995836
 31
-1379.051287506078
  0
POLYLINE
  5
2D9
330
28B
100
AcDbEntity
  8
OBJECT
100
AcDb2dPolyline
 66
     1
 10
0.0
 20
0.0
 30
-1379.051287506078
  0
VERTEX
  5
6D3
330
2D9
100
AcDbEntity
  8
OBJECT
100
AcDbVertex
100
AcDb2dVertex
 10
1508.885622460567
 20
2485.500004995836
 30
-1379.051287506078
 42
0.2482675702533275
  0
VERTEX
  5
6D4
330
2D9
100
AcDbEntity
  8
OBJECT
100
AcDbVertex
100
AcDb2dVertex
 10
1515.500000738229
 20
2482.000004995834
 30
-1379.051287506078
  0
VERTEX
  5
6D5
330
2D9
100
AcDbEntity
  8
OBJECT
100
AcDbVertex
100
AcDb2dVertex
 10
1549.500000738229
 20
2482.000004995834
 30
-1379.051287506078
 42
0.2482675702533577
  0
VERTEX
  5
6D6
330
2D9
100
AcDbEntity
  8
OBJECT
100
AcDbVertex
100
AcDb2dVertex
 10
1556.114379015892
 20
2485.500004995836
 30
-1379.051287506078
 42
0.2482675702533577
  0
SEQEND
  5
6D7
330
2D9
100
AcDbEntity
  8
OBJECT
  0
CIRCLE
  5
2DA
330
28B
100
AcDbEntity
  8
OBJECT
100
AcDbCircle
 10
1502.500000738229
 20
2510.500004995829
 30
-1379.051287506078
 40
14.0
  0
LINE
  5
2DB
330
28B
100
AcDbEntity
  8
OBJECT
 62
     0
100
AcDbLine
 10
1508.885622460567
 20
2595.500004995836
 30
-1379.051287506078
 11
1556.114379015889
 21
2595.500004995836
 31
-1379.051287506078
  0
POLYLINE
  5
2DC
330
28B
100
AcDbEntity
  8
OBJECT
100
AcDb2dPolyline
 66
     1
 10
0.0
 20
0.0
 30
-1379.051287506078
  0
VERTEX
  5
6D8
330
2DC
100
AcDbEntity
  8
OBJECT
100
AcDbVertex
100
AcDb2dVertex
 10
1508.885622460567
 20
2595.500004995836
 30
-1379.051287506078
 42
-0.2482675702531844
  0
VERTEX
  5
6D9
330
2DC
100
AcDbEntity
  8
OBJECT
100
AcDbVertex
100
AcDb2dVertex
 10
1515.500000738229
 20
2599.000004995834
 30
-1379.051287506078
  0
VERTEX
  5
6DA
330
2DC
100
AcDbEntity
  8
OBJECT
100
AcDbVertex
100
AcDb2dVertex
 10
1549.500000738229
 20
2599.000004995834
 30
-1379.051287506078
 42
-0.2482675702531731
  0
VERTEX
  5
6DB
330
2DC
100
AcDbEntity
  8
OBJECT
100
AcDbVertex
100
AcDb2dVertex
 10
1556.114379015889
 20
2595.500004995836
 30
-1379.051287506078
 42
-0.2482675702531731
  0
SEQEND
  5
6DC
330
2DC
100
AcDbEntity
  8
OBJECT
  0
CIRCLE
  5
2DD
330
28B
100
AcDbEntity
  8
OBJECT
100
AcDbCircle
 10
1562.500000738229
 20
2570.500004995835
 30
-1379.051287506078
 40
14.0
  0
POLYLINE
  5
2DE
330
28B
100
AcDbEntity
  8
OBJECT
100
AcDb2dPolyline
 66
     1
 10
0.0
 20
0.0
 30
-1379.051287506078
  0
VERTEX
  5
6DD
330
2DE
100
AcDbEntity
  8
OBJECT
100
AcDbVertex
100
AcDb2dVertex
 10
1587.500000738231
 20
2516.885626718143
 30
-1379.051287506078
 42
0.2482675702512566
  0
VERTEX
  5
6DE
330
2DE
100
AcDbEntity
  8
OBJECT
100
AcDbVertex
100
AcDb2dVertex
 10
1591.000000738182
 20
2523.500004995771
 30
-1379.051287506078
  0
VERTEX
  5
6DF
330
2DE
100
AcDbEntity
  8
OBJECT
100
AcDbVertex
100
AcDb2dVertex
 10
1591.000000738182
 20
2557.500004995771
 30
-1379.051287506078
  0
VERTEX
  5
6E0
330
2DE
100
AcDbEntity
  8
OBJECT
100
AcDbVertex
100
AcDb2dVertex
 10
1591.000000738182
 20
2557.500004995771
 30
-1379.051287506078
 42
0.2482675702512566
  0
VERTEX
  5
6E1
330
2DE
100
AcDbEntity
  8
OBJECT
100
AcDbVertex
100
AcDb2dVertex
 10
1587.500000738231
 20
2564.114383273397
 30
-1379.051287506078
  0
SEQEND
  5
6E2
330
2DE
100
AcDbEntity
  8
OBJECT
  0
LINE
  5
2DF
330
28B
100
AcDbEntity
  8
OBJECT
100
AcDbLine
 10
1587.500000738229
 20
2591.500004995836
 30
-1379.051287506078
 11
1587.500000738226
 21
2489.500004995838
 31
-1379.051287506078
  0
POLYLINE
  5
2E0
330
28B
100
AcDbEntity
  8
OBJECT
100
AcDb2dPolyline
 66
     1
 10
0.0
 20
0.0
 30
-1379.051287506078
  0
VERTEX
  5
6E3
330
2E0
100
AcDbEntity
  8
OBJECT
100
AcDbVertex
100
AcDb2dVertex
 10
1606.000000738229
 20
2565.500004995834
 30
-1379.051287506078
  0
VERTEX
  5
6E4
330
2E0
100
AcDbEntity
  8
OBJECT
100
AcDbVertex
100
AcDb2dVertex
 10
1608.000000738229
 20
2565.500004995834
 30
-1379.051287506078
 42
-0.4142135623730952
  0
VERTEX
  5
6E5
330
2E0
100
AcDbEntity
  8
OBJECT
100
AcDbVertex
100
AcDb2dVertex
 10
1616.000000738229
 20
2557.500004995834
 30
-1379.051287506078
  0
VERTEX
  5
6E6
330
2E0
100
AcDbEntity
  8
OBJECT
100
AcDbVertex
100
AcDb2dVertex
 10
1616.000000738229
 20
2523.500004995834
 30
-1379.051287506078
 42
-0.4142135623730952
  0
VERTEX
  5
6E7
330
2E0
100
AcDbEntity
  8
OBJECT
100
AcDbVertex
100
AcDb2dVertex
 10
1608.000000738229
 20
2515.500004995834
 30
-1379.051287506078
  0
VERTEX
  5
6E8
330
2E0
100
AcDbEntity
  8
OBJECT
100
AcDbVertex
100
AcDb2dVertex
 10
1606.000000738229
 20
2515.500004995834
 30
-1379.051287506078
  0
SEQEND
  5
6E9
330
2E0
100
AcDbEntity
  8
OBJECT
  0
ARC
  5
2E1
330
28B
100
AcDbEntity
  8
OBJECT
100
AcDbCircle
 10
1583.500000738228
 20
2489.500004995838
 30
-1379.051287506078
 40
4.0
100
AcDbArc
 50
270.0
 51
0.0
  0
ARC
  5
2E2
330
28B
100
AcDbEntity
  8
OBJECT
100
AcDbCircle
 10
1583.500000738229
 20
2591.500004995836
 30
-1379.051287506078
 40
3.999999999999991
100
AcDbArc
 50
0.0
 51
90.0
  0
LINE
  5
2E3
330
28B
100
AcDbEntity
  8
OBJECT
100
AcDbLine
 10
2253.500000738229
 20
2482.000004995834
 30
-1379.051287506078
 11
2253.500000738229
 21
1599.000004995834
 31
-1379.051287506078
  0
LINE
  5
2E4
330
28B
100
AcDbEntity
  8
OBJECT
100
AcDbLine
 10
2219.500000738229
 20
1599.000004995834
 30
-1379.051287506078
 11
2219.500000738229
 21
2482.000004995834
 31
-1379.051287506078
  0
POLYLINE
  5
2E5
330
28B
100
AcDbEntity
  8
OBJECT
100
AcDb2dPolyline
 66
     1
 10
0.0
 20
0.0
 30
-1379.051287506078
  0
VERTEX
  5
6EA
330
2E5
100
AcDbEntity
  8
OBJECT
100
AcDbVertex
100
AcDb2dVertex
 10
2188.000000738229
 20
2485.500004995836
 30
-1379.051287506078
  0
VERTEX
  5
6EB
330
2E5
100
AcDbEntity
  8
OBJECT
100
AcDbVertex
100
AcDb2dVertex
 10
2188.000000738229
 20
1595.500004995836
 30
-1379.051287506078
  0
SEQEND
  5
6EC
330
2E5
100
AcDbEntity
  8
OBJECT
  0
LINE
  5
2E6
330
28B
100
AcDbEntity
  8
OBJECT
100
AcDbLine
 10
2185.500000738229
 20
1595.500004995836
 30
-1379.051287506078
 11
2287.50000073823
 21
1595.500004995836
 31
-1379.051287506078
  0
LINE
  5
2E7
330
28B
100
AcDbEntity
  8
OBJECT
100
AcDbLine
 10
2287.500000738228
 20
1485.500004995834
 30
-1379.051287506078
 11
2185.500000738229
 21
1485.50000499583
 31
-1379.051287506078
  0
REGION
  5
2E8
330
28B
100
AcDbEntity
  8
OBJECT
100
AcDbModelerGeometry
 70
     1
  1
noi gi n o          
  1
=0;& {n {m {rn {rn |
  1
9@=0;&r3(;r>++-6= {rn {l {rn {o |
  1
3*2/ {k {rn {j {o |
  1
-:9@)+r3(;r>++-6= {rn {rn {n {o {i {h |
  1
-:9@)+r3(;r>++-6= {rn {rn {rn {m {i {h |
  1
,7:33 {g {rn {rn {f {m |
  1
-:961:2:1+ {rn o o o o mqkilgmljjifooomkk o o k o o o o o o o o |
  1
):-+:'@+:2/3>+: {rn l o n g |
  1
-:9@)+r3(;r>++-6= {rn {rn {rn {j {i {h |
  1
9><: {no {rn {nn {j {rn {nm 90-(>-; ;0*=3: 0*+ |
  1
99><:r3(;r>++-6= {rn {nl {rn {f |
  1
300/ {rn {nk {nj {f |
  1
/3>1:r,*-9><: {rn mmghqjooooohlgmlnk njfjqjooookffjglim rnlhfqojnmghjoiohfm o o n n o o n V V V V |
  1
-:9@)+r3(;r>++-6= {rn {rn {no {f {i {rn |
  1
300/ {rn {ni {nh {f |
  1
<0:;8: {ng {nf {mo {rn {mn o {nn {rn |
  1
300/ {rn {rn {mm {f |
  1
<0:;8: {ml {nh {nh {rn {mk n {nk {rn |
  1
<0/>-r3(;r>++-6= {rn {rn {rn {nj |
  1
<0:;8: {mj {mi {nj {rn {mh o {nn {rn |
  1
<0:;8: {mg {nj {mf {rn {lo o {nn {rn |
  1
:;8: {ln {lm {ll {nj {lk o |
  1
<0:;8: {lj {mm {mm {rn {li n {ni {rn |
  1
<0/>-r3(;r>++-6= {rn {rn {rn {nh |
  1
:;8: {lh {lg {lg {nh {lf o |
  1
<0/>-r3(;r>++-6= {rn {rn {rn {nf |
  1
<0:;8: {ko {kn {nf {rn {km o {nn {rn |
  1
:;8: {kl {ll {kk {nf {kj o |
  1
<0/>-r3(;r>++-6= {rn {rn {rn {mo |
  1
<0:;8: {ki {mo {kh {rn {kg o {nn {rn |
  1
:;8: {kf {jo {lm {mo {jn o |
  1
:/>-r3(;r>++-6= {rn {rn {rn {mn |
  1
):-+:' {rn {mn {jm |
  1
):-+:' {rn {mn {jl |
  1
,+->687+r<*-): {rn mngjqjooooohlgmmfi njfjqjooookffjglim rnlhfqojnmghjoiohfm rn o o V V |
  1
<0/>-r3(;r>++-6= {rn {rn {rn {mm |
  1
:;8: {jk {jj {jj {mm {ji o |
  1
:/>-r3(;r>++-6= {rn {rn {rn {mk |
  1
):-+:' {rn {mk {jh |
  1
:336/,:r<*-): {rn mmoiqjooooohlgmmhg njnoqjooookffjglim rnlhfqojnmghjoiohfm o o n nk o o n V V |
  1
<0/>-r3(;r>++-6= {rn {rn {rn {mi |
  1
<0:;8: {jg {jf {mi {rn {io o {nn {rn |
  1
:;8: {in {kk {im {mi {il o |
  1
:/>-r3(;r>++-6= {rn {rn {rn {mh |
  1
):-+:' {rn {mh {ik |
  1
:336/,:r<*-): {rn mngjqjooooohlgmmfi njfnqjooookffjglim rnlhfqojnmghjoiohfm o o n rmqgmgkmhnmkhkingfg mqgmgkmhnmkhkingfg o n V V |
  1
<0/>-r3(;r>++-6= {rn {rn {rn {mf |
  1
<0:;8: {ij {mf {jf {rn {ii o {nn {rn |
  1
:;8: {ih {ig {jo {mf {if o |
  1
:/>-r3(;r>++-6= {rn {rn {rn {lo |
  1
):-+:' {rn {kg {ho |
  1
:336/,:r<*-): {rn mmghqjooooohlgmlnk njfnqjooookffjglim rnlhfqojnmghjoiohfm o o n mqgmgkmhnmkhkinion mqgmgkmhnmkhkinion o n V V |
  1
/061+ {rn mmghqjooooohlgmlnk njfjqjooookffjglim rnlhfqojnmghjoiohfm |
  1
/061+ {rn mngjqjooooohlgmmfi njfjqjooookffjglim rnlhfqojnmghjoiohfm |
  1
:/>-r3(;r>++-6= {rn {rn {rn {li |
  1
):-+:' {rn {li {hn |
  1
:336/,:r<*-): {rn mmiiqjooooohlgmlnk njhoqjooookffjglim rnlhfqojnmghjoiohfm o o n rnk o o n V V |
  1
/061+ {rn mmmoqjooooohlgmmhg njnoqjooookffjglim rnlhfqojnmghjoiohfm |
  1
<0/>-r3(;r>++-6= {rn {rn {rn {kn |
  1
<0:;8: {hm {kh {kn {rn {hl o {nn {rn |
  1
:;8: {hk {im {hj {kn {hi o |
  1
:/>-r3(;r>++-6= {rn {rn {rn {km |
  1
):-+:' {rn {km {hh |
  1
,+->687+r<*-): {rn mngnqjooooohlgmmfi nkgfqjooookffjglim rnlhfqojnmghjoiohfm o rn o V V |
  1
/061+ {rn mngnqjooooohlgmmfi njfnqjooookffjglim rnlhfqojnmghjoiohfm |
  1
<0/>-r3(;r>++-6= {rn {rn {rn {kh |
  1
:;8: {hg {hf {ig {kh {go o |
  1
:/>-r3(;r>++-6= {rn {rn {rn {kg |
  1
):-+:' {rn {ii {gn |
  1
,+->687+r<*-): {rn mmfnqjooooohlgmlnk njfnqjooookffjglim rnlhfqojnmghjoiohfm mqihkfgkknifhfmnmh:ronk n o V V |
  1
/061+ {rn mmfnqjooooohlgmlnk njfnqjooookffjglim rnlhfqojnmghjoiohfm |
  1
/061+ {rn mmjmqjooooohlgmlnk njhoqjooookffjglim rnlhfqojnmghjoiohfm |
  1
<0/>-r3(;r>++-6= {rn {rn {rn {jf |
  1
:;8: {gm {hj {hf {jf {gl o |
  1
:/>-r3(;r>++-6= {rn {rn {rn {io |
  1
):-+:' {rn {io {gk |
  1
:336/,:r<*-): {rn mngjqjooooohlgmmfi nkgfqjooookffjglim rnlhfqojnmghjoiohfm o o n rmqgmgkmhnmkhkingkn rmqgmgkmhnmkhkingkn o n V V |
  1
/061+ {rn mngnqjooooohlgmmfi nkgfqjooookffjglim rnlhfqojnmghjoiohfm |
  1
:/>-r3(;r>++-6= {rn {rn {rn {ii |
  1
):-+:' {rn {hl {gj |
  1
:336/,:r<*-): {rn mmghqjooooohlgmmhg nkgfqjooookffjglim rnlhfqojnmghjoiohfm o o n mqgmgkmhnmkhkingfg rmqgmgkmhnmkhkingfg o n V V |
  1
/061+ {rn mmfnqjooooohlgmmhg nkgfqjooookffjglim rnlhfqojnmghjoiohfm |
  1
:/>-r3(;r>++-6= {rn {rn {rn {hl |
  1
,+->687+r<*-): {rn mmghqjooooohlgmmhg nkgjqjooookffjglim rnlhfqojnmghjoiohfm n kqkjglohlinilmokoj:ronj o V V |
  1
/061+ {rn mngjqjooooohlgmmfi nkgjqjooookffjglim rnlhfqojnmghjoiohfm |
  1
/061+ {rn mmghqjooooohlgmmhg nkgjqjooookffjglim rnlhfqojnmghjoiohfm |
  0
LINE
  5
2E9
330
28B
100
AcDbEntity
  8
OBJECT
100
AcDbLine
 10
2181.500000738229
 20
1489.50000499583
 30
-1379.051287506078
 11
2181.500000738229
 21
1591.500004995836
 31
-1379.051287506078
  0
POLYLINE
  5
2EA
330
28B
100
AcDbEntity
  8
OBJECT
100
AcDb2dPolyline
 66
     1
 10
0.0
 20
0.0
 30
-1379.051287506078
  0
VERTEX
  5
6ED
330
2EA
100
AcDbEntity
  8
OBJECT
100
AcDbVertex
100
AcDb2dVertex
 10
2163.000000738229
 20
1565.500004995834
 30
-1379.051287506078
  0
VERTEX
  5
6EE
330
2EA
100
AcDbEntity
  8
OBJECT
100
AcDbVertex
100
AcDb2dVertex
 10
2161.000000738229
 20
1565.500004995834
 30
-1379.051287506078
 42
0.4142135623730952
  0
VERTEX
  5
6EF
330
2EA
100
AcDbEntity
  8
OBJECT
100
AcDbVertex
100
AcDb2dVertex
 10
2153.000000738229
 20
1557.500004995834
 30
-1379.051287506078
  0
VERTEX
  5
6F0
330
2EA
100
AcDbEntity
  8
OBJECT
100
AcDbVertex
100
AcDb2dVertex
 10
2153.000000738229
 20
1523.500004995834
 30
-1379.051287506078
 42
0.4142135623730952
  0
VERTEX
  5
6F1
330
2EA
100
AcDbEntity
  8
OBJECT
100
AcDbVertex
100
AcDb2dVertex
 10
2161.000000738229
 20
1515.500004995834
 30
-1379.051287506078
  0
VERTEX
  5
6F2
330
2EA
100
AcDbEntity
  8
OBJECT
100
AcDbVertex
100
AcDb2dVertex
 10
2163.000000738229
 20
1515.500004995834
 30
-1379.051287506078
  0
SEQEND
  5
6F3
330
2EA
100
AcDbEntity
  8
OBJECT
  0
POLYLINE
  5
2EB
330
28B
100
AcDbEntity
  8
OBJECT
100
AcDb2dPolyline
 66
     1
 10
0.0
 20
0.0
 30
-1379.051287506078
  0
VERTEX
  5
6F4
330
2EB
100
AcDbEntity
  8
OBJECT
100
AcDbVertex
100
AcDb2dVertex
 10
1933.000000738229
 20
1565.500004995834
 30
-1379.051287506078
  0
VERTEX
  5
6F5
330
2EB
100
AcDbEntity
  8
OBJECT
100
AcDbVertex
100
AcDb2dVertex
 10
1935.000000738229
 20
1565.500004995834
 30
-1379.051287506078
 42
-0.4142135623730952
  0
VERTEX
  5
6F6
330
2EB
100
AcDbEntity
  8
OBJECT
100
AcDbVertex
100
AcDb2dVertex
 10
1943.000000738229
 20
1557.500004995834
 30
-1379.051287506078
  0
VERTEX
  5
6F7
330
2EB
100
AcDbEntity
  8
OBJECT
100
AcDbVertex
100
AcDb2dVertex
 10
1943.000000738229
 20
1523.500004995834
 30
-1379.051287506078
 42
-0.4142135623730952
  0
VERTEX
  5
6F8
330
2EB
100
AcDbEntity
  8
OBJECT
100
AcDbVertex
100
AcDb2dVertex
 10
1935.000000738229
 20
1515.500004995834
 30
-1379.051287506078
  0
VERTEX
  5
6F9
330
2EB
100
AcDbEntity
  8
OBJECT
100
AcDbVertex
100
AcDb2dVertex
 10
1933.000000738229
 20
1515.500004995834
 30
-1379.051287506078
  0
SEQEND
  5
6FA
330
2EB
100
AcDbEntity
  8
OBJECT
  0
POLYLINE
  5
2EC
330
28B
100
AcDbEntity
  8
OBJECT
100
AcDb2dPolyline
 66
     1
 10
0.0
 20
0.0
 30
-1379.051287506078
  0
VERTEX
  5
6FB
330
2EC
100
AcDbEntity
  8
OBJECT
100
AcDbVertex
100
AcDb2dVertex
 10
1836.000000738229
 20
1565.500004995834
 30
-1379.051287506078
  0
VERTEX
  5
6FC
330
2EC
100
AcDbEntity
  8
OBJECT
100
AcDbVertex
100
AcDb2dVertex
 10
1834.000000738229
 20
1565.500004995834
 30
-1379.051287506078
 42
0.4142135623730952
  0
VERTEX
  5
6FD
330
2EC
100
AcDbEntity
  8
OBJECT
100
AcDbVertex
100
AcDb2dVertex
 10
1826.000000738229
 20
1557.500004995834
 30
-1379.051287506078
  0
VERTEX
  5
6FE
330
2EC
100
AcDbEntity
  8
OBJECT
100
AcDbVertex
100
AcDb2dVertex
 10
1826.000000738229
 20
1523.500004995834
 30
-1379.051287506078
 42
0.4142135623730952
  0
VERTEX
  5
6FF
330
2EC
100
AcDbEntity
  8
OBJECT
100
AcDbVertex
100
AcDb2dVertex
 10
1834.000000738229
 20
1515.500004995834
 30
-1379.051287506078
  0
VERTEX
  5
700
330
2EC
100
AcDbEntity
  8
OBJECT
100
AcDbVertex
100
AcDb2dVertex
 10
1836.000000738229
 20
1515.500004995834
 30
-1379.051287506078
  0
SEQEND
  5
701
330
2EC
100
AcDbEntity
  8
OBJECT
  0
ARC
  5
2ED
330
28B
100
AcDbEntity
  8
OBJECT
100
AcDbCircle
 10
2185.500000738229
 20
1489.50000499583
 30
-1379.051287506078
 40
3.999999999999958
100
AcDbArc
 50
180.0
 51
270.0
  0
POLYLINE
  5
2EE
330
28B
100
AcDbEntity
  8
OBJECT
100
AcDb2dPolyline
 66
     1
 10
0.0
 20
0.0
 30
-1379.051287506078
 70
     1
  0
VERTEX
  5
702
330
2EE
100
AcDbEntity
  8
OBJECT
100
AcDbVertex
100
AcDb2dVertex
 10
1943.000000738229
 20
1557.500004995834
 30
-1379.051287506078
  0
VERTEX
  5
703
330
2EE
100
AcDbEntity
  8
OBJECT
100
AcDbVertex
100
AcDb2dVertex
 10
2153.000000738229
 20
1557.500004995834
 30
-1379.051287506078
  0
VERTEX
  5
704
330
2EE
100
AcDbEntity
  8
OBJECT
100
AcDbVertex
100
AcDb2dVertex
 10
2153.000000738229
 20
1523.500004995834
 30
-1379.051287506078
  0
VERTEX
  5
705
330
2EE
100
AcDbEntity
  8
OBJECT
100
AcDbVertex
100
AcDb2dVertex
 10
1943.000000738229
 20
1523.500004995834
 30
-1379.051287506078
  0
SEQEND
  5
706
330
2EE
100
AcDbEntity
  8
OBJECT
  0
POLYLINE
  5
2EF
330
28B
100
AcDbEntity
  8
OBJECT
100
AcDb2dPolyline
 66
     1
 10
0.0
 20
0.0
 30
-1379.051287506078
 70
     1
  0
VERTEX
  5
707
330
2EF
100
AcDbEntity
  8
OBJECT
100
AcDbVertex
100
AcDb2dVertex
 10
1943.000000738229
 20
1889.500004995834
 30
-1379.051287506078
  0
VERTEX
  5
708
330
2EF
100
AcDbEntity
  8
OBJECT
100
AcDbVertex
100
AcDb2dVertex
 10
2153.000000738229
 20
1889.500004995834
 30
-1379.051287506078
  0
VERTEX
  5
709
330
2EF
100
AcDbEntity
  8
OBJECT
100
AcDbVertex
100
AcDb2dVertex
 10
2153.000000738229
 20
1855.500004995834
 30
-1379.051287506078
  0
VERTEX
  5
70A
330
2EF
100
AcDbEntity
  8
OBJECT
100
AcDbVertex
100
AcDb2dVertex
 10
1943.000000738229
 20
1855.500004995834
 30
-1379.051287506078
  0
SEQEND
  5
70B
330
2EF
100
AcDbEntity
  8
OBJECT
  0
POLYLINE
  5
2F0
330
28B
100
AcDbEntity
  8
OBJECT
100
AcDb2dPolyline
 66
     1
 10
0.0
 20
0.0
 30
-1379.051287506078
  0
VERTEX
  5
70C
330
2F0
100
AcDbEntity
  8
OBJECT
100
AcDbVertex
100
AcDb2dVertex
 10
1836.000000738229
 20
1897.500004995833
 30
-1379.051287506078
  0
VERTEX
  5
70D
330
2F0
100
AcDbEntity
  8
OBJECT
100
AcDbVertex
100
AcDb2dVertex
 10
1834.000000738229
 20
1897.500004995833
 30
-1379.051287506078
 42
0.4142135623730952
  0
VERTEX
  5
70E
330
2F0
100
AcDbEntity
  8
OBJECT
100
AcDbVertex
100
AcDb2dVertex
 10
1826.000000738229
 20
1889.500004995834
 30
-1379.051287506078
  0
VERTEX
  5
70F
330
2F0
100
AcDbEntity
  8
OBJECT
100
AcDbVertex
100
AcDb2dVertex
 10
1826.000000738229
 20
1855.500004995834
 30
-1379.051287506078
 42
0.4142135623730952
  0
VERTEX
  5
710
330
2F0
100
AcDbEntity
  8
OBJECT
100
AcDbVertex
100
AcDb2dVertex
 10
1834.000000738229
 20
1847.500004995834
 30
-1379.051287506078
  0
VERTEX
  5
711
330
2F0
100
AcDbEntity
  8
OBJECT
100
AcDbVertex
100
AcDb2dVertex
 10
1836.000000738229
 20
1847.500004995834
 30
-1379.051287506078
  0
SEQEND
  5
712
330
2F0
100
AcDbEntity
  8
OBJECT
  0
POLYLINE
  5
2F1
330
28B
100
AcDbEntity
  8
OBJECT
100
AcDb2dPolyline
 66
     1
 10
0.0
 20
0.0
 30
-1379.051287506078
  0
VERTEX
  5
713
330
2F1
100
AcDbEntity
  8
OBJECT
100
AcDbVertex
100
AcDb2dVertex
 10
1933.000000738229
 20
1897.500004995833
 30
-1379.051287506078
  0
VERTEX
  5
714
330
2F1
100
AcDbEntity
  8
OBJECT
100
AcDbVertex
100
AcDb2dVertex
 10
1935.000000738229
 20
1897.500004995833
 30
-1379.051287506078
 42
-0.4142135623730952
  0
VERTEX
  5
715
330
2F1
100
AcDbEntity
  8
OBJECT
100
AcDbVertex
100
AcDb2dVertex
 10
1943.000000738229
 20
1889.500004995834
 30
-1379.051287506078
  0
VERTEX
  5
716
330
2F1
100
AcDbEntity
  8
OBJECT
100
AcDbVertex
100
AcDb2dVertex
 10
1943.000000738229
 20
1855.500004995834
 30
-1379.051287506078
 42
-0.4142135623730952
  0
VERTEX
  5
717
330
2F1
100
AcDbEntity
  8
OBJECT
100
AcDbVertex
100
AcDb2dVertex
 10
1935.000000738229
 20
1847.500004995834
 30
-1379.051287506078
  0
VERTEX
  5
718
330
2F1
100
AcDbEntity
  8
OBJECT
100
AcDbVertex
100
AcDb2dVertex
 10
1933.000000738229
 20
1847.500004995834
 30
-1379.051287506078
  0
SEQEND
  5
719
330
2F1
100
AcDbEntity
  8
OBJECT
  0
ARC
  5
2F2
330
28B
100
AcDbEntity
  8
OBJECT
100
AcDbCircle
 10
2185.500000738231
 20
1591.500004995836
 30
-1379.051287506078
 40
4.0
100
AcDbArc
 50
90.0
 51
180.0
  0
POLYLINE
  5
2F3
330
28B
100
AcDbEntity
  8
OBJECT
100
AcDb2dPolyline
 66
     1
 10
0.0
 20
0.0
 30
-1379.051287506078
  0
VERTEX
  5
71A
330
2F3
100
AcDbEntity
  8
OBJECT
100
AcDbVertex
100
AcDb2dVertex
 10
2163.000000738229
 20
1897.500004995833
 30
-1379.051287506078
  0
VERTEX
  5
71B
330
2F3
100
AcDbEntity
  8
OBJECT
100
AcDbVertex
100
AcDb2dVertex
 10
2161.000000738229
 20
1897.500004995833
 30
-1379.051287506078
 42
0.4142135623730952
  0
VERTEX
  5
71C
330
2F3
100
AcDbEntity
  8
OBJECT
100
AcDbVertex
100
AcDb2dVertex
 10
2153.000000738229
 20
1889.500004995834
 30
-1379.051287506078
  0
VERTEX
  5
71D
330
2F3
100
AcDbEntity
  8
OBJECT
100
AcDbVertex
100
AcDb2dVertex
 10
2153.000000738229
 20
1855.500004995834
 30
-1379.051287506078
 42
0.4142135623730952
  0
VERTEX
  5
71E
330
2F3
100
AcDbEntity
  8
OBJECT
100
AcDbVertex
100
AcDb2dVertex
 10
2161.000000738229
 20
1847.500004995834
 30
-1379.051287506078
  0
VERTEX
  5
71F
330
2F3
100
AcDbEntity
  8
OBJECT
100
AcDbVertex
100
AcDb2dVertex
 10
2163.000000738229
 20
1847.500004995834
 30
-1379.051287506078
  0
SEQEND
  5
720
330
2F3
100
AcDbEntity
  8
OBJECT
  0
LINE
  5
2F4
330
28B
100
AcDbEntity
  8
OBJECT
100
AcDbLine
 10
2291.500000738229
 20
1591.500004995836
 30
-1379.051287506078
 11
2291.500000738226
 21
1489.500004995838
 31
-1379.051287506078
  0
CIRCLE
  5
2F5
330
28B
100
AcDbEntity
  8
OBJECT
100
AcDbCircle
 10
2206.500000738229
 20
1510.500004995829
 30
-1379.051287506078
 40
14.0
  0
ARC
  5
2F6
330
28B
100
AcDbEntity
  8
OBJECT
100
AcDbCircle
 10
2287.500000738228
 20
1489.500004995838
 30
-1379.051287506078
 40
4.0
100
AcDbArc
 50
270.0
 51
0.0
  0
ARC
  5
2F7
330
28B
100
AcDbEntity
  8
OBJECT
100
AcDbCircle
 10
2287.50000073823
 20
1591.500004995836
 30
-1379.051287506078
 40
3.999999999999991
100
AcDbArc
 50
0.0
 51
90.0
  0
LINE
  5
2F8
330
28B
100
AcDbEntity
  8
OBJECT
 62
     0
100
AcDbLine
 10
2212.885622460567
 20
1595.500004995836
 30
-1379.051287506078
 11
2260.114379015889
 21
1595.500004995836
 31
-1379.051287506078
  0
POLYLINE
  5
2F9
330
28B
100
AcDbEntity
  8
OBJECT
100
AcDb2dPolyline
 66
     1
 10
0.0
 20
0.0
 30
-1379.051287506078
  0
VERTEX
  5
721
330
2F9
100
AcDbEntity
  8
OBJECT
100
AcDbVertex
100
AcDb2dVertex
 10
2212.885622460567
 20
1595.500004995836
 30
-1379.051287506078
 42
-0.2482675702531844
  0
VERTEX
  5
722
330
2F9
100
AcDbEntity
  8
OBJECT
100
AcDbVertex
100
AcDb2dVertex
 10
2219.500000738229
 20
1599.000004995834
 30
-1379.051287506078
  0
VERTEX
  5
723
330
2F9
100
AcDbEntity
  8
OBJECT
100
AcDbVertex
100
AcDb2dVertex
 10
2253.500000738229
 20
1599.000004995834
 30
-1379.051287506078
 42
-0.2482675702531731
  0
VERTEX
  5
724
330
2F9
100
AcDbEntity
  8
OBJECT
100
AcDbVertex
100
AcDb2dVertex
 10
2260.114379015889
 20
1595.500004995836
 30
-1379.051287506078
 42
-0.2482675702531731
  0
SEQEND
  5
725
330
2F9
100
AcDbEntity
  8
OBJECT
  0
CIRCLE
  5
2FA
330
28B
100
AcDbEntity
  8
OBJECT
100
AcDbCircle
 10
2266.500000738229
 20
1570.500004995835
 30
-1379.051287506078
 40
14.0
  0
LINE
  5
2FB
330
28B
100
AcDbEntity
  8
OBJECT
100
AcDbLine
 10
2185.500000738229
 20
2595.500004995836
 30
-1379.051287506078
 11
2287.50000073823
 21
2595.500004995836
 31
-1379.051287506078
  0
LINE
  5
2FC
330
28B
100
AcDbEntity
  8
OBJECT
100
AcDbLine
 10
2287.500000738228
 20
2485.500004995834
 30
-1379.051287506078
 11
2185.500000738229
 21
2485.50000499583
 31
-1379.051287506078
  0
REGION
  5
2FD
330
28B
100
AcDbEntity
  8
OBJECT
100
AcDbModelerGeometry
 70
     1
  1
noi gi n o          
  1
=0;& {n {m {rn {rn |
  1
9@=0;&r3(;r>++-6= {rn {l {rn {o |
  1
3*2/ {k {rn {j {o |
  1
-:9@)+r3(;r>++-6= {rn {rn {n {o {i {h |
  1
-:9@)+r3(;r>++-6= {rn {rn {rn {m {i {h |
  1
,7:33 {g {rn {rn {f {m |
  1
-:961:2:1+ {rn o o o o mqkilgmljjifooomkk o o k o o o o o o o o |
  1
):-+:'@+:2/3>+: {rn l o n g |
  1
-:9@)+r3(;r>++-6= {rn {rn {rn {j {i {h |
  1
9><: {no {rn {nn {j {rn {nm 90-(>-; ;0*=3: 0*+ |
  1
99><:r3(;r>++-6= {rn {nl {rn {f |
  1
300/ {rn {nk {nj {f |
  1
/3>1:r,*-9><: {rn mmghqjooooohlgmlnk mjfjqjooookffjglim rnlhfqojnmghjoiohfm o o n n o o n V V V V |
  1
-:9@)+r3(;r>++-6= {rn {rn {no {f {i {rn |
  1
300/ {rn {ni {nh {f |
  1
<0:;8: {ng {nf {mo {rn {mn o {nn {rn |
  1
300/ {rn {rn {mm {f |
  1
<0:;8: {ml {nh {nh {rn {mk n {nk {rn |
  1
<0/>-r3(;r>++-6= {rn {rn {rn {nj |
  1
<0:;8: {mj {mi {nj {rn {mh o {nn {rn |
  1
<0:;8: {mg {nj {mf {rn {lo o {nn {rn |
  1
:;8: {ln {lm {ll {nj {lk o |
  1
<0:;8: {lj {mm {mm {rn {li n {ni {rn |
  1
<0/>-r3(;r>++-6= {rn {rn {rn {nh |
  1
:;8: {lh {lg {lg {nh {lf o |
  1
<0/>-r3(;r>++-6= {rn {rn {rn {nf |
  1
<0:;8: {ko {kn {nf {rn {km o {nn {rn |
  1
:;8: {kl {ll {kk {nf {kj o |
  1
<0/>-r3(;r>++-6= {rn {rn {rn {mo |
  1
<0:;8: {ki {mo {kh {rn {kg o {nn {rn |
  1
:;8: {kf {jo {lm {mo {jn o |
  1
:/>-r3(;r>++-6= {rn {rn {rn {mn |
  1
):-+:' {rn {mn {jm |
  1
):-+:' {rn {mn {jl |
  1
,+->687+r<*-): {rn mngjqjooooohlgmmfi mjfjqjooookffjglim rnlhfqojnmghjoiohfm rn o o V V |
  1
<0/>-r3(;r>++-6= {rn {rn {rn {mm |
  1
:;8: {jk {jj {jj {mm {ji o |
  1
:/>-r3(;r>++-6= {rn {rn {rn {mk |
  1
):-+:' {rn {mk {jh |
  1
:336/,:r<*-): {rn mmoiqjooooohlgmmhg mjnoqjooookffjglim rnlhfqojnmghjoiohfm o o n nk o o n V V |
  1
<0/>-r3(;r>++-6= {rn {rn {rn {mi |
  1
<0:;8: {jg {jf {mi {rn {io o {nn {rn |
  1
:;8: {in {kk {im {mi {il o |
  1
:/>-r3(;r>++-6= {rn {rn {rn {mh |
  1
):-+:' {rn {mh {ik |
  1
:336/,:r<*-): {rn mngjqjooooohlgmmfi mjfnqjooookffjglim rnlhfqojnmghjoiohfm o o n rmqgmgkmhnmkhkingfg mqgmgkmhnmkhkingfg o n V V |
  1
<0/>-r3(;r>++-6= {rn {rn {rn {mf |
  1
<0:;8: {ij {mf {jf {rn {ii o {nn {rn |
  1
:;8: {ih {ig {jo {mf {if o |
  1
:/>-r3(;r>++-6= {rn {rn {rn {lo |
  1
):-+:' {rn {kg {ho |
  1
:336/,:r<*-): {rn mmghqjooooohlgmlnk mjfnqjooookffjglim rnlhfqojnmghjoiohfm o o n mqgmgkmhnmkhkinion mqgmgkmhnmkhkinion o n V V |
  1
/061+ {rn mmghqjooooohlgmlnk mjfjqjooookffjglim rnlhfqojnmghjoiohfm |
  1
/061+ {rn mngjqjooooohlgmmfi mjfjqjooookffjglim rnlhfqojnmghjoiohfm |
  1
:/>-r3(;r>++-6= {rn {rn {rn {li |
  1
):-+:' {rn {li {hn |
  1
:336/,:r<*-): {rn mmiiqjooooohlgmlnk mjhoqjooookffjglim rnlhfqojnmghjoiohfm o o n rnk o o n V V |
  1
/061+ {rn mmmoqjooooohlgmmhg mjnoqjooookffjglim rnlhfqojnmghjoiohfm |
  1
<0/>-r3(;r>++-6= {rn {rn {rn {kn |
  1
<0:;8: {hm {kh {kn {rn {hl o {nn {rn |
  1
:;8: {hk {im {hj {kn {hi o |
  1
:/>-r3(;r>++-6= {rn {rn {rn {km |
  1
):-+:' {rn {km {hh |
  1
,+->687+r<*-): {rn mngnqjooooohlgmmfi mkgfqjooookffjglim rnlhfqojnmghjoiohfm o rn o V V |
  1
/061+ {rn mngnqjooooohlgmmfi mjfnqjooookffjglim rnlhfqojnmghjoiohfm |
  1
<0/>-r3(;r>++-6= {rn {rn {rn {kh |
  1
:;8: {hg {hf {ig {kh {go o |
  1
:/>-r3(;r>++-6= {rn {rn {rn {kg |
  1
):-+:' {rn {ii {gn |
  1
,+->687+r<*-): {rn mmfnqjooooohlgmlnk mjfnqjooookffjglim rnlhfqojnmghjoiohfm mqihkfgkknifhfmnmh:ronk n o V V |
  1
/061+ {rn mmfnqjooooohlgmlnk mjfnqjooookffjglim rnlhfqojnmghjoiohfm |
  1
/061+ {rn mmjmqjooooohlgmlnk mjhoqjooookffjglim rnlhfqojnmghjoiohfm |
  1
<0/>-r3(;r>++-6= {rn {rn {rn {jf |
  1
:;8: {gm {hj {hf {jf {gl o |
  1
:/>-r3(;r>++-6= {rn {rn {rn {io |
  1
):-+:' {rn {io {gk |
  1
:336/,:r<*-): {rn mngjqjooooohlgmmfi mkgfqjooookffjglim rnlhfqojnmghjoiohfm o o n rmqgmgkmhnmkhkingkn rmqgmgkmhnmkhkingkn o n V V |
  1
/061+ {rn mngnqjooooohlgmmfi mkgfqjooookffjglim rnlhfqojnmghjoiohfm |
  1
:/>-r3(;r>++-6= {rn {rn {rn {ii |
  1
):-+:' {rn {hl {gj |
  1
:336/,:r<*-): {rn mmghqjooooohlgmmhg mkgfqjooookffjglim rnlhfqojnmghjoiohfm o o n mqgmgkmhnmkhkingfg rmqgmgkmhnmkhkingfg o n V V |
  1
/061+ {rn mmfnqjooooohlgmmhg mkgfqjooookffjglim rnlhfqojnmghjoiohfm |
  1
:/>-r3(;r>++-6= {rn {rn {rn {hl |
  1
,+->687+r<*-): {rn mmghqjooooohlgmmhg mkgjqjooookffjglim rnlhfqojnmghjoiohfm n kqkjglohlinilmokoj:ronj o V V |
  1
/061+ {rn mngjqjooooohlgmmfi mkgjqjooookffjglim rnlhfqojnmghjoiohfm |
  1
/061+ {rn mmghqjooooohlgmmhg mkgjqjooookffjglim rnlhfqojnmghjoiohfm |
  0
POLYLINE
  5
2FE
330
28B
100
AcDbEntity
  8
OBJECT
100
AcDb2dPolyline
 66
     1
 10
0.0
 20
0.0
 30
-1379.051287506078
 70
     1
  0
VERTEX
  5
726
330
2FE
100
AcDbEntity
  8
OBJECT
100
AcDbVertex
100
AcDb2dVertex
 10
1943.000000738229
 20
2223.500004995834
 30
-1379.051287506078
  0
VERTEX
  5
727
330
2FE
100
AcDbEntity
  8
OBJECT
100
AcDbVertex
100
AcDb2dVertex
 10
2153.000000738229
 20
2223.500004995834
 30
-1379.051287506078
  0
VERTEX
  5
728
330
2FE
100
AcDbEntity
  8
OBJECT
100
AcDbVertex
100
AcDb2dVertex
 10
2153.000000738229
 20
2189.500004995834
 30
-1379.051287506078
  0
VERTEX
  5
729
330
2FE
100
AcDbEntity
  8
OBJECT
100
AcDbVertex
100
AcDb2dVertex
 10
1943.000000738229
 20
2189.500004995834
 30
-1379.051287506078
  0
SEQEND
  5
72A
330
2FE
100
AcDbEntity
  8
OBJECT
  0
POLYLINE
  5
2FF
330
28B
100
AcDbEntity
  8
OBJECT
100
AcDb2dPolyline
 66
     1
 10
0.0
 20
0.0
 30
-1379.051287506078
  0
VERTEX
  5
72B
330
2FF
100
AcDbEntity
  8
OBJECT
100
AcDbVertex
100
AcDb2dVertex
 10
1933.000000738229
 20
2231.500004995834
 30
-1379.051287506078
  0
VERTEX
  5
72C
330
2FF
100
AcDbEntity
  8
OBJECT
100
AcDbVertex
100
AcDb2dVertex
 10
1935.000000738229
 20
2231.500004995834
 30
-1379.051287506078
 42
-0.4142135623730952
  0
VERTEX
  5
72D
330
2FF
100
AcDbEntity
  8
OBJECT
100
AcDbVertex
100
AcDb2dVertex
 10
1943.000000738229
 20
2223.500004995834
 30
-1379.051287506078
  0
VERTEX
  5
72E
330
2FF
100
AcDbEntity
  8
OBJECT
100
AcDbVertex
100
AcDb2dVertex
 10
1943.000000738229
 20
2189.500004995834
 30
-1379.051287506078
 42
-0.4142135623730952
  0
VERTEX
  5
72F
330
2FF
100
AcDbEntity
  8
OBJECT
100
AcDbVertex
100
AcDb2dVertex
 10
1935.000000738229
 20
2181.500004995834
 30
-1379.051287506078
  0
VERTEX
  5
730
330
2FF
100
AcDbEntity
  8
OBJECT
100
AcDbVertex
100
AcDb2dVertex
 10
1933.000000738229
 20
2181.500004995834
 30
-1379.051287506078
  0
SEQEND
  5
731
330
2FF
100
AcDbEntity
  8
OBJECT
  0
POLYLINE
  5
300
330
28B
100
AcDbEntity
  8
OBJECT
100
AcDb2dPolyline
 66
     1
 10
0.0
 20
0.0
 30
-1379.051287506078
  0
VERTEX
  5
732
330
300
100
AcDbEntity
  8
OBJECT
100
AcDbVertex
100
AcDb2dVertex
 10
1836.000000738229
 20
2231.500004995834
 30
-1379.051287506078
  0
VERTEX
  5
733
330
300
100
AcDbEntity
  8
OBJECT
100
AcDbVertex
100
AcDb2dVertex
 10
1834.000000738229
 20
2231.500004995834
 30
-1379.051287506078
 42
0.4142135623730952
  0
VERTEX
  5
734
330
300
100
AcDbEntity
  8
OBJECT
100
AcDbVertex
100
AcDb2dVertex
 10
1826.000000738229
 20
2223.500004995834
 30
-1379.051287506078
  0
VERTEX
  5
735
330
300
100
AcDbEntity
  8
OBJECT
100
AcDbVertex
100
AcDb2dVertex
 10
1826.000000738229
 20
2189.500004995834
 30
-1379.051287506078
 42
0.4142135623730952
  0
VERTEX
  5
736
330
300
100
AcDbEntity
  8
OBJECT
100
AcDbVertex
100
AcDb2dVertex
 10
1834.000000738229
 20
2181.500004995834
 30
-1379.051287506078
  0
VERTEX
  5
737
330
300
100
AcDbEntity
  8
OBJECT
100
AcDbVertex
100
AcDb2dVertex
 10
1836.000000738229
 20
2181.500004995834
 30
-1379.051287506078
  0
SEQEND
  5
738
330
300
100
AcDbEntity
  8
OBJECT
  0
POLYLINE
  5
301
330
28B
100
AcDbEntity
  8
OBJECT
100
AcDb2dPolyline
 66
     1
 10
0.0
 20
0.0
 30
-1379.051287506078
  0
VERTEX
  5
739
330
301
100
AcDbEntity
  8
OBJECT
100
AcDbVertex
100
AcDb2dVertex
 10
2163.000000738229
 20
2231.500004995834
 30
-1379.051287506078
  0
VERTEX
  5
73A
330
301
100
AcDbEntity
  8
OBJECT
100
AcDbVertex
100
AcDb2dVertex
 10
2161.000000738229
 20
2231.500004995834
 30
-1379.051287506078
 42
0.4142135623730952
  0
VERTEX
  5
73B
330
301
100
AcDbEntity
  8
OBJECT
100
AcDbVertex
100
AcDb2dVertex
 10
2153.000000738229
 20
2223.500004995834
 30
-1379.051287506078
  0
VERTEX
  5
73C
330
301
100
AcDbEntity
  8
OBJECT
100
AcDbVertex
100
AcDb2dVertex
 10
2153.000000738229
 20
2189.500004995834
 30
-1379.051287506078
 42
0.4142135623730952
  0
VERTEX
  5
73D
330
301
100
AcDbEntity
  8
OBJECT
100
AcDbVertex
100
AcDb2dVertex
 10
2161.000000738229
 20
2181.500004995834
 30
-1379.051287506078
  0
VERTEX
  5
73E
330
301
100
AcDbEntity
  8
OBJECT
100
AcDbVertex
100
AcDb2dVertex
 10
2163.000000738229
 20
2181.500004995834
 30
-1379.051287506078
  0
SEQEND
  5
73F
330
301
100
AcDbEntity
  8
OBJECT
  0
POLYLINE
  5
302
330
28B
100
AcDbEntity
  8
OBJECT
100
AcDb2dPolyline
 66
     1
 10
0.0
 20
0.0
 30
-1379.051287506078
 70
     1
  0
VERTEX
  5
740
330
302
100
AcDbEntity
  8
OBJECT
100
AcDbVertex
100
AcDb2dVertex
 10
1943.000000738229
 20
2557.500004995834
 30
-1379.051287506078
  0
VERTEX
  5
741
330
302
100
AcDbEntity
  8
OBJECT
100
AcDbVertex
100
AcDb2dVertex
 10
2153.000000738229
 20
2557.500004995834
 30
-1379.051287506078
  0
VERTEX
  5
742
330
302
100
AcDbEntity
  8
OBJECT
100
AcDbVertex
100
AcDb2dVertex
 10
2153.000000738229
 20
2523.500004995834
 30
-1379.051287506078
  0
VERTEX
  5
743
330
302
100
AcDbEntity
  8
OBJECT
100
AcDbVertex
100
AcDb2dVertex
 10
1943.000000738229
 20
2523.500004995834
 30
-1379.051287506078
  0
SEQEND
  5
744
330
302
100
AcDbEntity
  8
OBJECT
  0
POLYLINE
  5
303
330
28B
100
AcDbEntity
  8
OBJECT
100
AcDb2dPolyline
 66
     1
 10
0.0
 20
0.0
 30
-1379.051287506078
  0
VERTEX
  5
745
330
303
100
AcDbEntity
  8
OBJECT
100
AcDbVertex
100
AcDb2dVertex
 10
1836.000000738229
 20
2565.500004995834
 30
-1379.051287506078
  0
VERTEX
  5
746
330
303
100
AcDbEntity
  8
OBJECT
100
AcDbVertex
100
AcDb2dVertex
 10
1834.000000738229
 20
2565.500004995834
 30
-1379.051287506078
 42
0.4142135623730952
  0
VERTEX
  5
747
330
303
100
AcDbEntity
  8
OBJECT
100
AcDbVertex
100
AcDb2dVertex
 10
1826.000000738229
 20
2557.500004995834
 30
-1379.051287506078
  0
VERTEX
  5
748
330
303
100
AcDbEntity
  8
OBJECT
100
AcDbVertex
100
AcDb2dVertex
 10
1826.000000738229
 20
2523.500004995834
 30
-1379.051287506078
 42
0.4142135623730952
  0
VERTEX
  5
749
330
303
100
AcDbEntity
  8
OBJECT
100
AcDbVertex
100
AcDb2dVertex
 10
1834.000000738229
 20
2515.500004995834
 30
-1379.051287506078
  0
VERTEX
  5
74A
330
303
100
AcDbEntity
  8
OBJECT
100
AcDbVertex
100
AcDb2dVertex
 10
1836.000000738229
 20
2515.500004995834
 30
-1379.051287506078
  0
SEQEND
  5
74B
330
303
100
AcDbEntity
  8
OBJECT
  0
POLYLINE
  5
304
330
28B
100
AcDbEntity
  8
OBJECT
100
AcDb2dPolyline
 66
     1
 10
0.0
 20
0.0
 30
-1379.051287506078
  0
VERTEX
  5
74C
330
304
100
AcDbEntity
  8
OBJECT
100
AcDbVertex
100
AcDb2dVertex
 10
1933.000000738229
 20
2565.500004995834
 30
-1379.051287506078
  0
VERTEX
  5
74D
330
304
100
AcDbEntity
  8
OBJECT
100
AcDbVertex
100
AcDb2dVertex
 10
1935.000000738229
 20
2565.500004995834
 30
-1379.051287506078
 42
-0.4142135623730952
  0
VERTEX
  5
74E
330
304
100
AcDbEntity
  8
OBJECT
100
AcDbVertex
100
AcDb2dVertex
 10
1943.000000738229
 20
2557.500004995834
 30
-1379.051287506078
  0
VERTEX
  5
74F
330
304
100
AcDbEntity
  8
OBJECT
100
AcDbVertex
100
AcDb2dVertex
 10
1943.000000738229
 20
2523.500004995834
 30
-1379.051287506078
 42
-0.4142135623730952
  0
VERTEX
  5
750
330
304
100
AcDbEntity
  8
OBJECT
100
AcDbVertex
100
AcDb2dVertex
 10
1935.000000738229
 20
2515.500004995834
 30
-1379.051287506078
  0
VERTEX
  5
751
330
304
100
AcDbEntity
  8
OBJECT
100
AcDbVertex
100
AcDb2dVertex
 10
1933.000000738229
 20
2515.500004995834
 30
-1379.051287506078
  0
SEQEND
  5
752
330
304
100
AcDbEntity
  8
OBJECT
  0
LINE
  5
305
330
28B
100
AcDbEntity
  8
OBJECT
100
AcDbLine
 10
2181.500000738229
 20
2489.50000499583
 30
-1379.051287506078
 11
2181.500000738229
 21
2591.500004995836
 31
-1379.051287506078
  0
POLYLINE
  5
306
330
28B
100
AcDbEntity
  8
OBJECT
100
AcDb2dPolyline
 66
     1
 10
0.0
 20
0.0
 30
-1379.051287506078
  0
VERTEX
  5
753
330
306
100
AcDbEntity
  8
OBJECT
100
AcDbVertex
100
AcDb2dVertex
 10
2163.000000738229
 20
2565.500004995834
 30
-1379.051287506078
  0
VERTEX
  5
754
330
306
100
AcDbEntity
  8
OBJECT
100
AcDbVertex
100
AcDb2dVertex
 10
2161.000000738229
 20
2565.500004995834
 30
-1379.051287506078
 42
0.4142135623730952
  0
VERTEX
  5
755
330
306
100
AcDbEntity
  8
OBJECT
100
AcDbVertex
100
AcDb2dVertex
 10
2153.000000738229
 20
2557.500004995834
 30
-1379.051287506078
  0
VERTEX
  5
756
330
306
100
AcDbEntity
  8
OBJECT
100
AcDbVertex
100
AcDb2dVertex
 10
2153.000000738229
 20
2523.500004995834
 30
-1379.051287506078
 42
0.4142135623730952
  0
VERTEX
  5
757
330
306
100
AcDbEntity
  8
OBJECT
100
AcDbVertex
100
AcDb2dVertex
 10
2161.000000738229
 20
2515.500004995834
 30
-1379.051287506078
  0
VERTEX
  5
758
330
306
100
AcDbEntity
  8
OBJECT
100
AcDbVertex
100
AcDb2dVertex
 10
2163.000000738229
 20
2515.500004995834
 30
-1379.051287506078
  0
SEQEND
  5
759
330
306
100
AcDbEntity
  8
OBJECT
  0
ARC
  5
307
330
28B
100
AcDbEntity
  8
OBJECT
100
AcDbCircle
 10
2185.500000738229
 20
2489.50000499583
 30
-1379.051287506078
 40
3.999999999999958
100
AcDbArc
 50
180.0
 51
270.0
  0
ARC
  5
308
330
28B
100
AcDbEntity
  8
OBJECT
100
AcDbCircle
 10
2185.500000738231
 20
2591.500004995836
 30
-1379.051287506078
 40
4.0
100
AcDbArc
 50
90.0
 51
180.0
  0
ARC
  5
309
330
28B
100
AcDbEntity
  8
OBJECT
100
AcDbCircle
 10
2287.500000738228
 20
2489.500004995838
 30
-1379.051287506078
 40
4.0
100
AcDbArc
 50
270.0
 51
0.0
  0
ARC
  5
30A
330
28B
100
AcDbEntity
  8
OBJECT
100
AcDbCircle
 10
2287.50000073823
 20
2591.500004995836
 30
-1379.051287506078
 40
3.999999999999991
100
AcDbArc
 50
0.0
 51
90.0
  0
LINE
  5
30B
330
28B
100
AcDbEntity
  8
OBJECT
100
AcDbLine
 10
2291.500000738229
 20
2591.500004995836
 30
-1379.051287506078
 11
2291.500000738226
 21
2489.500004995838
 31
-1379.051287506078
  0
POLYLINE
  5
30C
330
28B
100
AcDbEntity
  8
OBJECT
100
AcDb2dPolyline
 66
     1
 10
0.0
 20
0.0
 30
-1379.051287506078
  0
VERTEX
  5
75A
330
30C
100
AcDbEntity
  8
OBJECT
100
AcDbVertex
100
AcDb2dVertex
 10
2212.885622460567
 20
2485.500004995836
 30
-1379.051287506078
 42
0.2482675702533275
  0
VERTEX
  5
75B
330
30C
100
AcDbEntity
  8
OBJECT
100
AcDbVertex
100
AcDb2dVertex
 10
2219.500000738229
 20
2482.000004995834
 30
-1379.051287506078
  0
VERTEX
  5
75C
330
30C
100
AcDbEntity
  8
OBJECT
100
AcDbVertex
100
AcDb2dVertex
 10
2253.500000738229
 20
2482.000004995834
 30
-1379.051287506078
 42
0.2482675702533577
  0
VERTEX
  5
75D
330
30C
100
AcDbEntity
  8
OBJECT
100
AcDbVertex
100
AcDb2dVertex
 10
2260.114379015893
 20
2485.500004995836
 30
-1379.051287506078
 42
0.2482675702533577
  0
SEQEND
  5
75E
330
30C
100
AcDbEntity
  8
OBJECT
  0
CIRCLE
  5
30D
330
28B
100
AcDbEntity
  8
OBJECT
100
AcDbCircle
 10
2206.500000738229
 20
2510.500004995829
 30
-1379.051287506078
 40
14.0
  0
LINE
  5
30E
330
28B
100
AcDbEntity
  8
OBJECT
 62
     0
100
AcDbLine
 10
2212.885622460567
 20
2595.500004995836
 30
-1379.051287506078
 11
2260.114379015889
 21
2595.500004995836
 31
-1379.051287506078
  0
POLYLINE
  5
30F
330
28B
100
AcDbEntity
  8
OBJECT
100
AcDb2dPolyline
 66
     1
 10
0.0
 20
0.0
 30
-1379.051287506078
  0
VERTEX
  5
75F
330
30F
100
AcDbEntity
  8
OBJECT
100
AcDbVertex
100
AcDb2dVertex
 10
2212.885622460567
 20
2595.500004995836
 30
-1379.051287506078
 42
-0.2482675702531844
  0
VERTEX
  5
760
330
30F
100
AcDbEntity
  8
OBJECT
100
AcDbVertex
100
AcDb2dVertex
 10
2219.500000738229
 20
2599.000004995834
 30
-1379.051287506078
  0
VERTEX
  5
761
330
30F
100
AcDbEntity
  8
OBJECT
100
AcDbVertex
100
AcDb2dVertex
 10
2253.500000738229
 20
2599.000004995834
 30
-1379.051287506078
 42
-0.2482675702531731
  0
VERTEX
  5
762
330
30F
100
AcDbEntity
  8
OBJECT
100
AcDbVertex
100
AcDb2dVertex
 10
2260.114379015889
 20
2595.500004995836
 30
-1379.051287506078
 42
-0.2482675702531731
  0
SEQEND
  5
763
330
30F
100
AcDbEntity
  8
OBJECT
  0
CIRCLE
  5
310
330
28B
100
AcDbEntity
  8
OBJECT
100
AcDbCircle
 10
2266.500000738229
 20
2570.500004995835
 30
-1379.051287506078
 40
14.0
  0
CIRCLE
  5
311
330
28B
100
AcDbEntity
  8
OBJECT
100
AcDbCircle
 10
2421.000000738229
 20
4185.500004995836
 30
-1380.051287506079
 40
14.0
  0
LINE
  5
312
330
28B
100
AcDbEntity
  8
OBJECT
100
AcDbLine
 10
2178.000000738229
 20
4168.500004995836
 30
-1379.051287506078
 11
1591.000000738229
 21
4168.500004995836
 31
-1379.051287506078
  0
LINE
  5
313
330
28B
100
AcDbEntity
  8
OBJECT
100
AcDbLine
 10
1591.000000738229
 20
4202.500004995836
 30
-1379.051287506078
 11
2178.000000738229
 21
4202.500004995836
 31
-1379.051287506078
  0
POLYLINE
  5
314
330
28B
100
AcDbEntity
  8
OBJECT
100
AcDb2dPolyline
 66
     1
 10
0.0
 20
0.0
 30
-1379.051287506078
  0
VERTEX
  5
764
330
314
100
AcDbEntity
  8
OBJECT
100
AcDbVertex
100
AcDb2dVertex
 10
1523.500000738229
 20
4111.000004995831
 30
-1379.051287506078
  0
VERTEX
  5
765
330
314
100
AcDbEntity
  8
OBJECT
100
AcDbVertex
100
AcDb2dVertex
 10
1504.000000738229
 20
4111.000004995831
 30
-1379.051287506078
  0
VERTEX
  5
766
330
314
100
AcDbEntity
  8
OBJECT
100
AcDbVertex
100
AcDb2dVertex
 10
1504.000000738229
 20
4131.000004995832
 30
-1379.051287506078
  0
VERTEX
  5
767
330
314
100
AcDbEntity
  8
OBJECT
100
AcDbVertex
100
AcDb2dVertex
 10
2183.563509065132
 20
4131.000004995832
 30
-1379.051287506078
  0
SEQEND
  5
768
330
314
100
AcDbEntity
  8
OBJECT
  0
POLYLINE
  5
315
330
28B
100
AcDbEntity
  8
OBJECT
100
AcDb2dPolyline
 66
     1
 10
0.0
 20
0.0
 30
-1379.051287506078
  0
VERTEX
  5
769
330
315
100
AcDbEntity
  8
OBJECT
100
AcDbVertex
100
AcDb2dVertex
 10
2181.500000738229
 20
3589.000004995833
 30
-1379.051287506078
  0
VERTEX
  5
76A
330
315
100
AcDbEntity
  8
OBJECT
100
AcDbVertex
100
AcDb2dVertex
 10
1587.500000738231
 20
3589.000004995833
 30
-1379.051287506078
  0
SEQEND
  5
76B
330
315
100
AcDbEntity
  8
OBJECT
  0
POLYLINE
  5
316
330
28B
100
AcDbEntity
  8
OBJECT
100
AcDb2dPolyline
 66
     1
 10
0.0
 20
0.0
 30
-1379.051287506078
 70
     1
  0
VERTEX
  5
76C
330
316
100
AcDbEntity
  8
OBJECT
100
AcDbVertex
100
AcDb2dVertex
 10
1616.000000738229
 20
3557.500004995836
 30
-1379.051287506078
  0
VERTEX
  5
76D
330
316
100
AcDbEntity
  8
OBJECT
100
AcDbVertex
100
AcDb2dVertex
 10
1826.000000738229
 20
3557.500004995836
 30
-1379.051287506078
  0
VERTEX
  5
76E
330
316
100
AcDbEntity
  8
OBJECT
100
AcDbVertex
100
AcDb2dVertex
 10
1826.000000738229
 20
3523.500004995836
 30
-1379.051287506078
  0
VERTEX
  5
76F
330
316
100
AcDbEntity
  8
OBJECT
100
AcDbVertex
100
AcDb2dVertex
 10
1616.000000738229
 20
3523.500004995836
 30
-1379.051287506078
  0
SEQEND
  5
770
330
316
100
AcDbEntity
  8
OBJECT
  0
POLYLINE
  5
317
330
28B
100
AcDbEntity
  8
OBJECT
100
AcDb2dPolyline
 66
     1
 10
0.0
 20
0.0
 30
-1379.051287506078
 70
     1
  0
VERTEX
  5
771
330
317
100
AcDbEntity
  8
OBJECT
100
AcDbVertex
100
AcDb2dVertex
 10
1616.000000738229
 20
3225.500004995835
 30
-1379.051287506078
  0
VERTEX
  5
772
330
317
100
AcDbEntity
  8
OBJECT
100
AcDbVertex
100
AcDb2dVertex
 10
1826.000000738229
 20
3225.500004995835
 30
-1379.051287506078
  0
VERTEX
  5
773
330
317
100
AcDbEntity
  8
OBJECT
100
AcDbVertex
100
AcDb2dVertex
 10
1826.000000738229
 20
3191.500004995834
 30
-1379.051287506078
  0
VERTEX
  5
774
330
317
100
AcDbEntity
  8
OBJECT
100
AcDbVertex
100
AcDb2dVertex
 10
1616.000000738229
 20
3191.500004995834
 30
-1379.051287506078
  0
SEQEND
  5
775
330
317
100
AcDbEntity
  8
OBJECT
  0
POLYLINE
  5
318
330
28B
100
AcDbEntity
  8
OBJECT
100
AcDb2dPolyline
 66
     1
 10
0.0
 20
0.0
 30
-1379.051287506078
  0
VERTEX
  5
776
330
318
100
AcDbEntity
  8
OBJECT
100
AcDbVertex
100
AcDb2dVertex
 10
1523.500000738229
 20
3696.000004995834
 30
-1379.051287506078
  0
VERTEX
  5
777
330
318
100
AcDbEntity
  8
OBJECT
100
AcDbVertex
100
AcDb2dVertex
 10
1504.000000738229
 20
3696.000004995834
 30
-1379.051287506078
  0
VERTEX
  5
778
330
318
100
AcDbEntity
  8
OBJECT
100
AcDbVertex
100
AcDb2dVertex
 10
1504.000000738229
 20
3763.000004995834
 30
-1379.051287506078
  0
VERTEX
  5
779
330
318
100
AcDbEntity
  8
OBJECT
100
AcDbVertex
100
AcDb2dVertex
 10
1523.500000738229
 20
3763.000004995834
 30
-1379.051287506078
  0
SEQEND
  5
77A
330
318
100
AcDbEntity
  8
OBJECT
  0
POLYLINE
  5
319
330
28B
100
AcDbEntity
  8
OBJECT
100
AcDb2dPolyline
 66
     1
 10
0.0
 20
0.0
 30
-1379.051287506078
  0
VERTEX
  5
77B
330
319
100
AcDbEntity
  8
OBJECT
100
AcDbVertex
100
AcDb2dVertex
 10
1484.000000738229
 20
3595.500004995836
 30
-1379.051287506078
  0
VERTEX
  5
77C
330
319
100
AcDbEntity
  8
OBJECT
100
AcDbVertex
100
AcDb2dVertex
 10
1484.000000738229
 20
4131.000004995835
 30
-1379.051287506078
  0
VERTEX
  5
77D
330
319
100
AcDbEntity
  8
OBJECT
100
AcDbVertex
100
AcDb2dVertex
 10
1504.000000738229
 20
4131.000004995835
 30
-1379.051287506078
  0
VERTEX
  5
77E
330
319
100
AcDbEntity
  8
OBJECT
100
AcDbVertex
100
AcDb2dVertex
 10
1504.000000738229
 20
3595.500004995836
 30
-1379.051287506078
  0
SEQEND
  5
77F
330
319
100
AcDbEntity
  8
OBJECT
  0
LINE
  5
31A
330
28B
100
AcDbEntity
  8
OBJECT
100
AcDbLine
 10
1523.500000738229
 20
3595.500004995836
 30
-1379.051287506078
 11
1523.500000738229
 21
4130.500004995837
 31
-1379.051287506078
  0
LINE
  5
31B
330
28B
100
AcDbEntity
  8
OBJECT
100
AcDbLine
 10
1541.500000738229
 20
4130.500004995837
 30
-1379.051287506078
 11
1541.500000738229
 21
3595.500004995836
 31
-1379.051287506078
  0
POLYLINE
  5
31C
330
28B
100
AcDbEntity
  8
OBJECT
100
AcDb2dPolyline
 66
     1
 10
0.0
 20
0.0
 30
-1379.051287506078
  0
VERTEX
  5
780
330
31C
100
AcDbEntity
  8
OBJECT
100
AcDbVertex
100
AcDb2dVertex
 10
1606.000000738229
 20
3233.500004995834
 30
-1379.051287506078
  0
VERTEX
  5
781
330
31C
100
AcDbEntity
  8
OBJECT
100
AcDbVertex
100
AcDb2dVertex
 10
1608.000000738229
 20
3233.500004995834
 30
-1379.051287506078
 42
-0.4142135623730952
  0
VERTEX
  5
782
330
31C
100
AcDbEntity
  8
OBJECT
100
AcDbVertex
100
AcDb2dVertex
 10
1616.000000738229
 20
3225.500004995835
 30
-1379.051287506078
  0
VERTEX
  5
783
330
31C
100
AcDbEntity
  8
OBJECT
100
AcDbVertex
100
AcDb2dVertex
 10
1616.000000738229
 20
3191.500004995834
 30
-1379.051287506078
 42
-0.4142135623730952
  0
VERTEX
  5
784
330
31C
100
AcDbEntity
  8
OBJECT
100
AcDbVertex
100
AcDb2dVertex
 10
1608.000000738229
 20
3183.500004995833
 30
-1379.051287506078
  0
VERTEX
  5
785
330
31C
100
AcDbEntity
  8
OBJECT
100
AcDbVertex
100
AcDb2dVertex
 10
1606.000000738229
 20
3183.500004995833
 30
-1379.051287506078
  0
SEQEND
  5
786
330
31C
100
AcDbEntity
  8
OBJECT
  0
POLYLINE
  5
31D
330
28B
100
AcDbEntity
  8
OBJECT
100
AcDb2dPolyline
 66
     1
 10
0.0
 20
0.0
 30
-1379.051287506078
  0
VERTEX
  5
787
330
31D
100
AcDbEntity
  8
OBJECT
100
AcDbVertex
100
AcDb2dVertex
 10
1581.000000738229
 20
3609.000004995836
 30
-1379.051287506078
  0
VERTEX
  5
788
330
31D
100
AcDbEntity
  8
OBJECT
100
AcDbVertex
100
AcDb2dVertex
 10
1581.000000738229
 20
3651.500004995833
 30
-1379.051287506078
  0
VERTEX
  5
789
330
31D
100
AcDbEntity
  8
OBJECT
100
AcDbVertex
100
AcDb2dVertex
 10
1606.000000738229
 20
3651.500004995833
 30
-1379.051287506078
  0
VERTEX
  5
78A
330
31D
100
AcDbEntity
  8
OBJECT
100
AcDbVertex
100
AcDb2dVertex
 10
1606.000000738229
 20
3609.000004995836
 30
-1379.051287506078
  0
SEQEND
  5
78B
330
31D
100
AcDbEntity
  8
OBJECT
  0
LINE
  5
31E
330
28B
100
AcDbEntity
  8
OBJECT
100
AcDbLine
 10
1481.500000738229
 20
3595.50000499584
 30
-1379.051287506078
 11
1583.500000738229
 21
3595.50000499584
 31
-1379.051287506078
  0
LINE
  5
31F
330
28B
100
AcDbEntity
  8
OBJECT
100
AcDbLine
 10
1583.500000738228
 20
3485.500004995838
 30
-1379.051287506078
 11
1481.500000738229
 21
3485.500004995834
 31
-1379.051287506078
  0
REGION
  5
320
330
28B
100
AcDbEntity
  8
OBJECT
100
AcDbModelerGeometry
 70
     1
  1
noi gi n o          
  1
=0;& {n {m {rn {rn |
  1
9@=0;&r3(;r>++-6= {rn {l {rn {o |
  1
3*2/ {k {rn {j {o |
  1
-:9@)+r3(;r>++-6= {rn {rn {n {o {i {h |
  1
-:9@)+r3(;r>++-6= {rn {rn {rn {m {i {h |
  1
,7:33 {g {rn {rn {f {m |
  1
-:961:2:1+ {rn o o o o mqkilgmljjifooomkk o o k o o o o o o o o |
  1
):-+:'@+:2/3>+: {rn l o n g |
  1
-:9@)+r3(;r>++-6= {rn {rn {rn {j {i {h |
  1
9><: {no {rn {nn {j {rn {nm 90-(>-; ;0*=3: 0*+ |
  1
99><:r3(;r>++-6= {rn {nl {rn {f |
  1
300/ {rn {nk {nj {f |
  1
/3>1:r,*-9><: {rn njglqjooooohlgmlnk ljfjqjooookffjglim rnlhfqojnmghjoiohfm o o n n o o n V V V V |
  1
-:9@)+r3(;r>++-6= {rn {rn {no {f {i {rn |
  1
300/ {rn {ni {nh {f |
  1
<0:;8: {ng {nf {mo {rn {mn o {nn {rn |
  1
300/ {rn {rn {mm {f |
  1
<0:;8: {ml {nh {nh {rn {mk n {nk {rn |
  1
<0/>-r3(;r>++-6= {rn {rn {rn {nj |
  1
<0:;8: {mj {mi {nj {rn {mh o {nn {rn |
  1
<0:;8: {mg {nj {mf {rn {lo o {nn {rn |
  1
:;8: {ln {lm {ll {nj {lk o |
  1
<0:;8: {lj {mm {mm {rn {li n {ni {rn |
  1
<0/>-r3(;r>++-6= {rn {rn {rn {nh |
  1
:;8: {lh {lg {lg {nh {lf o |
  1
<0/>-r3(;r>++-6= {rn {rn {rn {nf |
  1
<0:;8: {ko {kn {nf {rn {km o {nn {rn |
  1
:;8: {kl {ll {kk {nf {kj o |
  1
<0/>-r3(;r>++-6= {rn {rn {rn {mo |
  1
<0:;8: {ki {mo {kh {rn {kg o {nn {rn |
  1
:;8: {kf {jo {lm {mo {jn o |
  1
:/>-r3(;r>++-6= {rn {rn {rn {mn |
  1
):-+:' {rn {mn {jm |
  1
):-+:' {rn {mn {jl |
  1
,+->687+r<*-): {rn nkgnqjooooohlgmmfi ljfjqjooookffjglim rnlhfqojnmghjoiohfm rn o o V V |
  1
<0/>-r3(;r>++-6= {rn {rn {rn {mm |
  1
:;8: {jk {jj {jj {mm {ji o |
  1
:/>-r3(;r>++-6= {rn {rn {rn {mk |
  1
):-+:' {rn {mk {jh |
  1
:336/,:r<*-): {rn njomqjooooohlgmmhg ljnoqjooookffjglim rnlhfqojnmghjoiohfm o o n nk o o n V V |
  1
<0/>-r3(;r>++-6= {rn {rn {rn {mi |
  1
<0:;8: {jg {jf {mi {rn {io o {nn {rn |
  1
:;8: {in {kk {im {mi {il o |
  1
:/>-r3(;r>++-6= {rn {rn {rn {mh |
  1
):-+:' {rn {mh {ik |
  1
:336/,:r<*-): {rn nkgnqjooooohlgmmfi ljfnqjooookffjglim rnlhfqojnmghjoiohfm o o n rmqgmgkmhnmkhkingfg mqgmgkmhnmkhkingfg o n V V |
  1
<0/>-r3(;r>++-6= {rn {rn {rn {mf |
  1
<0:;8: {ij {mf {jf {rn {ii o {nn {rn |
  1
:;8: {ih {ig {jo {mf {if o |
  1
:/>-r3(;r>++-6= {rn {rn {rn {lo |
  1
):-+:' {rn {kg {ho |
  1
:336/,:r<*-): {rn njglqjooooohlgmlnk ljfnqjooookffjglim rnlhfqojnmghjoiohfm o o n mqgmgkmhnmkhkinion mqgmgkmhnmkhkinion o n V V |
  1
/061+ {rn njglqjooooohlgmlnk ljfjqjooookffjglim rnlhfqojnmghjoiohfm |
  1
/061+ {rn nkgnqjooooohlgmmfi ljfjqjooookffjglim rnlhfqojnmghjoiohfm |
  1
:/>-r3(;r>++-6= {rn {rn {rn {li |
  1
):-+:' {rn {li {hn |
  1
:336/,:r<*-): {rn njimqjooooohlgmlnk ljhoqjooookffjglim rnlhfqojnmghjoiohfm o o n rnk o o n V V |
  1
/061+ {rn njniqjooooohlgmmhg ljnoqjooookffjglim rnlhfqojnmghjoiohfm |
  1
<0/>-r3(;r>++-6= {rn {rn {rn {kn |
  1
<0:;8: {hm {kh {kn {rn {hl o {nn {rn |
  1
:;8: {hk {im {hj {kn {hi o |
  1
:/>-r3(;r>++-6= {rn {rn {rn {km |
  1
):-+:' {rn {km {hh |
  1
,+->687+r<*-): {rn nkhhqjooooohlgmmfi lkgfqjooookffjglim rnlhfqojnmghjoiohfm o rn o V V |
  1
/061+ {rn nkhhqjooooohlgmmfi ljfnqjooookffjglim rnlhfqojnmghjoiohfm |
  1
<0/>-r3(;r>++-6= {rn {rn {rn {kh |
  1
:;8: {hg {hf {ig {kh {go o |
  1
:/>-r3(;r>++-6= {rn {rn {rn {kg |
  1
):-+:' {rn {ii {gn |
  1
,+->687+r<*-): {rn njghqjooooohlgmlnk ljfnqjooookffjglim rnlhfqojnmghjoiohfm mqihkfgkknifhfmnmh:ronk n o V V |
  1
/061+ {rn njghqjooooohlgmlnk ljfnqjooookffjglim rnlhfqojnmghjoiohfm |
  1
/061+ {rn njkgqjooooohlgmlnk ljhoqjooookffjglim rnlhfqojnmghjoiohfm |
  1
<0/>-r3(;r>++-6= {rn {rn {rn {jf |
  1
:;8: {gm {hj {hf {jf {gl o |
  1
:/>-r3(;r>++-6= {rn {rn {rn {io |
  1
):-+:' {rn {io {gk |
  1
:336/,:r<*-): {rn nkgnqjooooohlgmmfi lkgfqjooookffjglim rnlhfqojnmghjoiohfm o o n rmqgmgkmhnmkhkingkn rmqgmgkmhnmkhkingkn o n V V |
  1
/061+ {rn nkhhqjooooohlgmmfi lkgfqjooookffjglim rnlhfqojnmghjoiohfm |
  1
:/>-r3(;r>++-6= {rn {rn {rn {ii |
  1
):-+:' {rn {hl {gj |
  1
:336/,:r<*-): {rn njglqjooooohlgmmhg lkgfqjooookffjglim rnlhfqojnmghjoiohfm o o n mqgmgkmhnmkhkingfg rmqgmgkmhnmkhkingfg o n V V |
  1
/061+ {rn njghqjooooohlgmmhg lkgfqjooookffjglim rnlhfqojnmghjoiohfm |
  1
:/>-r3(;r>++-6= {rn {rn {rn {hl |
  1
,+->687+r<*-): {rn njglqjooooohlgmmhg lkgjqjooookffjglim rnlhfqojnmghjoiohfm n kqkjglohlinilmokoj:ronj o V V |
  1
/061+ {rn nkgnqjooooohlgmmfi lkgjqjooookffjglim rnlhfqojnmghjoiohfm |
  1
/061+ {rn njglqjooooohlgmmhg lkgjqjooookffjglim rnlhfqojnmghjoiohfm |
  0
LINE
  5
321
330
28B
100
AcDbEntity
  8
OBJECT
100
AcDbLine
 10
1477.500000738229
 20
3489.500004995834
 30
-1379.051287506078
 11
1477.500000738229
 21
3591.50000499584
 31
-1379.051287506078
  0
ARC
  5
322
330
28B
100
AcDbEntity
  8
OBJECT
100
AcDbCircle
 10
1481.500000738229
 20
3489.500004995834
 30
-1379.051287506078
 40
3.999999999999958
100
AcDbArc
 50
180.0
 51
270.0
  0
LINE
  5
323
330
28B
100
AcDbEntity
  8
OBJECT
 62
     0
100
AcDbLine
 10
1508.885622460567
 20
3485.500004995836
 30
-1379.051287506078
 11
1556.114379015892
 21
3485.500004995836
 31
-1379.051287506078
  0
POLYLINE
  5
324
330
28B
100
AcDbEntity
  8
OBJECT
100
AcDb2dPolyline
 66
     1
 10
0.0
 20
0.0
 30
-1379.051287506078
  0
VERTEX
  5
78C
330
324
100
AcDbEntity
  8
OBJECT
100
AcDbVertex
100
AcDb2dVertex
 10
1508.885622460567
 20
3485.500004995836
 30
-1379.051287506078
 42
0.2482675702533275
  0
VERTEX
  5
78D
330
324
100
AcDbEntity
  8
OBJECT
100
AcDbVertex
100
AcDb2dVertex
 10
1515.500000738229
 20
3482.000004995834
 30
-1379.051287506078
  0
VERTEX
  5
78E
330
324
100
AcDbEntity
  8
OBJECT
100
AcDbVertex
100
AcDb2dVertex
 10
1549.500000738229
 20
3482.000004995834
 30
-1379.051287506078
 42
0.2482675702533577
  0
VERTEX
  5
78F
330
324
100
AcDbEntity
  8
OBJECT
100
AcDbVertex
100
AcDb2dVertex
 10
1556.114379015892
 20
3485.500004995836
 30
-1379.051287506078
 42
0.2482675702533577
  0
SEQEND
  5
790
330
324
100
AcDbEntity
  8
OBJECT
  0
CIRCLE
  5
325
330
28B
100
AcDbEntity
  8
OBJECT
100
AcDbCircle
 10
1502.500000738229
 20
3510.500004995833
 30
-1379.051287506078
 40
14.0
  0
ARC
  5
326
330
28B
100
AcDbEntity
  8
OBJECT
100
AcDbCircle
 10
1481.500000738231
 20
3591.50000499584
 30
-1379.051287506078
 40
4.0
100
AcDbArc
 50
90.0
 51
180.0
  0
POLYLINE
  5
327
330
28B
100
AcDbEntity
  8
OBJECT
100
AcDb2dPolyline
 66
     1
 10
0.0
 20
0.0
 30
-1379.051287506078
  0
VERTEX
  5
791
330
327
100
AcDbEntity
  8
OBJECT
100
AcDbVertex
100
AcDb2dVertex
 10
1523.500000738229
 20
3609.000004995836
 30
-1379.051287506078
  0
VERTEX
  5
792
330
327
100
AcDbEntity
  8
OBJECT
100
AcDbVertex
100
AcDb2dVertex
 10
1504.000000738229
 20
3609.000004995836
 30
-1379.051287506078
  0
VERTEX
  5
793
330
327
100
AcDbEntity
  8
OBJECT
100
AcDbVertex
100
AcDb2dVertex
 10
1504.000000738229
 20
3676.000004995836
 30
-1379.051287506078
  0
VERTEX
  5
794
330
327
100
AcDbEntity
  8
OBJECT
100
AcDbVertex
100
AcDb2dVertex
 10
1523.500000738229
 20
3676.000004995836
 30
-1379.051287506078
  0
SEQEND
  5
795
330
327
100
AcDbEntity
  8
OBJECT
  0
POLYLINE
  5
328
330
28B
100
AcDbEntity
  8
OBJECT
100
AcDb2dPolyline
 66
     1
 10
0.0
 20
0.0
 30
-1379.051287506078
  0
VERTEX
  5
796
330
328
100
AcDbEntity
  8
OBJECT
100
AcDbVertex
100
AcDb2dVertex
 10
1504.000000738229
 20
3595.500004995836
 30
-1379.051287506078
  0
VERTEX
  5
797
330
328
100
AcDbEntity
  8
OBJECT
100
AcDbVertex
100
AcDb2dVertex
 10
1504.000000738229
 20
3609.000004995836
 30
-1379.051287506078
  0
VERTEX
  5
798
330
328
100
AcDbEntity
  8
OBJECT
100
AcDbVertex
100
AcDb2dVertex
 10
1523.500000738229
 20
3609.000004995836
 30
-1379.051287506078
  0
SEQEND
  5
799
330
328
100
AcDbEntity
  8
OBJECT
  0
CIRCLE
  5
329
330
28B
100
AcDbEntity
  8
OBJECT
100
AcDbCircle
 10
1562.500000738229
 20
3570.50000499584
 30
-1379.051287506078
 40
14.0
  0
POLYLINE
  5
32A
330
28B
100
AcDbEntity
  8
OBJECT
100
AcDb2dPolyline
 66
     1
 10
0.0
 20
0.0
 30
-1379.051287506078
  0
VERTEX
  5
79A
330
32A
100
AcDbEntity
  8
OBJECT
100
AcDbVertex
100
AcDb2dVertex
 10
1523.500000738229
 20
3694.500004995834
 30
-1379.051287506078
  0
VERTEX
  5
79B
330
32A
100
AcDbEntity
  8
OBJECT
100
AcDbVertex
100
AcDb2dVertex
 10
1504.000000738229
 20
3694.500004995834
 30
-1379.051287506078
  0
VERTEX
  5
79C
330
32A
100
AcDbEntity
  8
OBJECT
100
AcDbVertex
100
AcDb2dVertex
 10
1504.000000738229
 20
3676.000004995836
 30
-1379.051287506078
  0
VERTEX
  5
79D
330
32A
100
AcDbEntity
  8
OBJECT
100
AcDbVertex
100
AcDb2dVertex
 10
1523.500000738229
 20
3676.000004995836
 30
-1379.051287506078
  0
SEQEND
  5
79E
330
32A
100
AcDbEntity
  8
OBJECT
  0
POLYLINE
  5
32B
330
28B
100
AcDbEntity
  8
OBJECT
100
AcDb2dPolyline
 66
     1
 10
0.0
 20
0.0
 30
-1379.051287506078
  0
VERTEX
  5
79F
330
32B
100
AcDbEntity
  8
OBJECT
100
AcDbVertex
100
AcDb2dVertex
 10
1606.000000738229
 20
3565.500004995836
 30
-1379.051287506078
  0
VERTEX
  5
7A0
330
32B
100
AcDbEntity
  8
OBJECT
100
AcDbVertex
100
AcDb2dVertex
 10
1608.000000738229
 20
3565.500004995836
 30
-1379.051287506078
 42
-0.4142135623730952
  0
VERTEX
  5
7A1
330
32B
100
AcDbEntity
  8
OBJECT
100
AcDbVertex
100
AcDb2dVertex
 10
1616.000000738229
 20
3557.500004995836
 30
-1379.051287506078
  0
VERTEX
  5
7A2
330
32B
100
AcDbEntity
  8
OBJECT
100
AcDbVertex
100
AcDb2dVertex
 10
1616.000000738229
 20
3523.500004995836
 30
-1379.051287506078
 42
-0.4142135623730952
  0
VERTEX
  5
7A3
330
32B
100
AcDbEntity
  8
OBJECT
100
AcDbVertex
100
AcDb2dVertex
 10
1608.000000738229
 20
3515.500004995836
 30
-1379.051287506078
  0
VERTEX
  5
7A4
330
32B
100
AcDbEntity
  8
OBJECT
100
AcDbVertex
100
AcDb2dVertex
 10
1606.000000738229
 20
3515.500004995836
 30
-1379.051287506078
  0
SEQEND
  5
7A5
330
32B
100
AcDbEntity
  8
OBJECT
  0
LINE
  5
32C
330
28B
100
AcDbEntity
  8
OBJECT
100
AcDbLine
 10
1587.500000738229
 20
3591.50000499584
 30
-1379.051287506078
 11
1587.500000738226
 21
3489.500004995842
 31
-1379.051287506078
  0
ARC
  5
32D
330
28B
100
AcDbEntity
  8
OBJECT
100
AcDbCircle
 10
1583.500000738228
 20
3489.500004995842
 30
-1379.051287506078
 40
4.0
100
AcDbArc
 50
270.0
 51
0.0
  0
ARC
  5
32E
330
28B
100
AcDbEntity
  8
OBJECT
100
AcDbCircle
 10
1583.500000738229
 20
3591.50000499584
 30
-1379.051287506078
 40
3.999999999999991
100
AcDbArc
 50
0.0
 51
90.0
  0
LINE
  5
32F
330
28B
100
AcDbEntity
  8
OBJECT
100
AcDbLine
 10
1587.500000738276
 20
4236.5000049959
 30
-1379.051287506078
 11
1587.500000738275
 21
4134.500004995902
 31
-1379.051287506078
  0
POLYLINE
  5
330
330
28B
100
AcDbEntity
  8
OBJECT
100
AcDb2dPolyline
 66
     1
 10
0.0
 20
0.0
 30
-1379.051287506078
  0
VERTEX
  5
7A6
330
330
100
AcDbEntity
  8
OBJECT
100
AcDbVertex
100
AcDb2dVertex
 10
1587.500000738278
 20
4161.885626718208
 30
-1379.051287506078
 42
0.2482675702512566
  0
VERTEX
  5
7A7
330
330
100
AcDbEntity
  8
OBJECT
100
AcDbVertex
100
AcDb2dVertex
 10
1591.000000738229
 20
4168.500004995836
 30
-1379.051287506078
  0
VERTEX
  5
7A8
330
330
100
AcDbEntity
  8
OBJECT
100
AcDbVertex
100
AcDb2dVertex
 10
1591.000000738229
 20
4202.500004995836
 30
-1379.051287506078
  0
VERTEX
  5
7A9
330
330
100
AcDbEntity
  8
OBJECT
100
AcDbVertex
100
AcDb2dVertex
 10
1591.000000738229
 20
4202.500004995836
 30
-1379.051287506078
 42
0.2482675702512566
  0
VERTEX
  5
7AA
330
330
100
AcDbEntity
  8
OBJECT
100
AcDbVertex
100
AcDb2dVertex
 10
1587.500000738278
 20
4209.114383273464
 30
-1379.051287506078
  0
SEQEND
  5
7AB
330
330
100
AcDbEntity
  8
OBJECT
  0
CIRCLE
  5
331
330
28B
100
AcDbEntity
  8
OBJECT
100
AcDbCircle
 10
1562.500000738276
 20
4215.500004995901
 30
-1379.051287506078
 40
14.0
  0
LINE
  5
332
330
28B
100
AcDbEntity
  8
OBJECT
100
AcDbLine
 10
1477.500000738277
 20
4134.500004995896
 30
-1379.051287506078
 11
1477.500000738277
 21
4236.5000049959
 31
-1379.051287506078
  0
REGION
  5
333
330
28B
100
AcDbEntity
  8
OBJECT
100
AcDbModelerGeometry
 70
     1
  1
noi gi n o          
  1
=0;& {n {m {rn {rn |
  1
9@=0;&r3(;r>++-6= {rn {l {rn {o |
  1
3*2/ {k {rn {j {o |
  1
-:9@)+r3(;r>++-6= {rn {rn {n {o {i {h |
  1
-:9@)+r3(;r>++-6= {rn {rn {rn {m {i {h |
  1
,7:33 {g {rn {rn {f {m |
  1
-:961:2:1+ {rn o o o o mqkilgmljjifooomkk o o k o o o o o o o o |
  1
):-+:'@+:2/3>+: {rn l o n g |
  1
-:9@)+r3(;r>++-6= {rn {rn {rn {j {i {h |
  1
9><: {no {rn {nn {j {rn {nm 90-(>-; ;0*=3: 0*+ |
  1
99><:r3(;r>++-6= {rn {nl {rn {f |
  1
300/ {rn {nk {nj {f |
  1
/3>1:r,*-9><: {rn njglqjooooohlgmllm kmkoqjooookffjglim rnlhfqojnmghjoiohfm o o n n o o n V V V V |
  1
-:9@)+r3(;r>++-6= {rn {rn {no {f {i {rn |
  1
300/ {rn {ni {nh {f |
  1
<0:;8: {ng {nf {mo {rn {mn o {nn {rn |
  1
300/ {rn {rn {mm {f |
  1
<0:;8: {ml {nh {nh {rn {mk n {nk {rn |
  1
<0/>-r3(;r>++-6= {rn {rn {rn {nj |
  1
<0:;8: {mj {mi {nj {rn {mh o {nn {rn |
  1
<0:;8: {mg {nj {mf {rn {lo o {nn {rn |
  1
:;8: {ln {lm {ll {nj {lk o |
  1
<0:;8: {lj {mm {mm {rn {li n {ni {rn |
  1
<0/>-r3(;r>++-6= {rn {rn {rn {nh |
  1
:;8: {lh {lg {lg {nh {lf o |
  1
<0/>-r3(;r>++-6= {rn {rn {rn {nf |
  1
<0:;8: {ko {kn {nf {rn {km o {nn {rn |
  1
:;8: {kl {ll {kk {nf {kj o |
  1
<0/>-r3(;r>++-6= {rn {rn {rn {mo |
  1
<0:;8: {ki {mo {kh {rn {kg o {nn {rn |
  1
:;8: {kf {jo {lm {mo {jn o |
  1
:/>-r3(;r>++-6= {rn {rn {rn {mn |
  1
):-+:' {rn {mn {jm |
  1
):-+:' {rn {mn {jl |
  1
,+->687+r<*-): {rn nkgnqjooooohlgmlnk kmkoqjooookffjglim rnlhfqojnmghjoiohfm rn o o V V |
  1
<0/>-r3(;r>++-6= {rn {rn {rn {mm |
  1
:;8: {jk {jj {jj {mm {ji o |
  1
:/>-r3(;r>++-6= {rn {rn {rn {mk |
  1
):-+:' {rn {mk {jh |
  1
:336/,:r<*-): {rn njomqjooooohlgmmfi knjjqjooookffjglim rnlhfqojnmghjoiohfm o o n nk o o n V V |
  1
<0/>-r3(;r>++-6= {rn {rn {rn {mi |
  1
<0:;8: {jg {jf {mi {rn {io o {nn {rn |
  1
:;8: {in {kk {im {mi {il o |
  1
:/>-r3(;r>++-6= {rn {rn {rn {mh |
  1
):-+:' {rn {mh {ik |
  1
:336/,:r<*-): {rn nkgnqjooooohlgmlnk kmliqjooookffjglim rnlhfqojnmghjoiohfm o o n rmqgmgkmhnmkhkingfg mqgmgkmhnmkhkingfg o n V V |
  1
<0/>-r3(;r>++-6= {rn {rn {rn {mf |
  1
<0:;8: {ij {mf {jf {rn {ii o {nn {rn |
  1
:;8: {ih {ig {jo {mf {if o |
  1
:/>-r3(;r>++-6= {rn {rn {rn {lo |
  1
):-+:' {rn {kg {ho |
  1
:336/,:r<*-): {rn njglqjooooohlgmllm kmliqjooookffjglim rnlhfqojnmghjoiohfm o o n mqgmgkmhnmkhkinion mqgmgkmhnmkhkinion o n V V |
  1
/061+ {rn njglqjooooohlgmllm kmkoqjooookffjglim rnlhfqojnmghjoiohfm |
  1
/061+ {rn nkgnqjooooohlgmlnk kmkoqjooookffjglim rnlhfqojnmghjoiohfm |
  1
:/>-r3(;r>++-6= {rn {rn {rn {li |
  1
):-+:' {rn {li {hn |
  1
:336/,:r<*-): {rn njimqjooooohlgmllm kmnjqjooookffjglim rnlhfqojnmghjoiohfm o o n rnk o o n V V |
  1
/061+ {rn njniqjooooohlgmmfi knjjqjooookffjglim rnlhfqojnmghjoiohfm |
  1
<0/>-r3(;r>++-6= {rn {rn {rn {kn |
  1
<0:;8: {hm {kh {kn {rn {hl o {nn {rn |
  1
:;8: {hk {im {hj {kn {hi o |
  1
:/>-r3(;r>++-6= {rn {rn {rn {km |
  1
):-+:' {rn {km {hh |
  1
,+->687+r<*-): {rn nkhhqjooooohlgmlnk knlkqjooookffjglim rnlhfqojnmghjoiohfm o rn o V V |
  1
/061+ {rn nkhhqjooooohlgmlnk kmliqjooookffjglim rnlhfqojnmghjoiohfm |
  1
<0/>-r3(;r>++-6= {rn {rn {rn {kh |
  1
:;8: {hg {hf {ig {kh {go o |
  1
:/>-r3(;r>++-6= {rn {rn {rn {kg |
  1
):-+:' {rn {ii {gn |
  1
,+->687+r<*-): {rn njghqjooooohlgmllm kmliqjooookffjglim rnlhfqojnmghjoiohfm mqihkfgkknifhfmnmh:ronk n o V V |
  1
/061+ {rn njghqjooooohlgmllm kmliqjooookffjglim rnlhfqojnmghjoiohfm |
  1
/061+ {rn njkgqjooooohlgmllm kmnjqjooookffjglim rnlhfqojnmghjoiohfm |
  1
<0/>-r3(;r>++-6= {rn {rn {rn {jf |
  1
:;8: {gm {hj {hf {jf {gl o |
  1
:/>-r3(;r>++-6= {rn {rn {rn {io |
  1
):-+:' {rn {io {gk |
  1
:336/,:r<*-): {rn nkgnqjooooohlgmlnk knlkqjooookffjglim rnlhfqojnmghjoiohfm o o n rmqgmgkmhnmkhkingkn rmqgmgkmhnmkhkingkn o n V V |
  1
/061+ {rn nkhhqjooooohlgmlnk knlkqjooookffjglim rnlhfqojnmghjoiohfm |
  1
:/>-r3(;r>++-6= {rn {rn {rn {ii |
  1
):-+:' {rn {hl {gj |
  1
:336/,:r<*-): {rn njglqjooooohlgmmfi knlkqjooookffjglim rnlhfqojnmghjoiohfm o o n mqgmgkmhnmkhkingfg rmqgmgkmhnmkhkingfg o n V V |
  1
/061+ {rn njghqjooooohlgmmfi knlkqjooookffjglim rnlhfqojnmghjoiohfm |
  1
:/>-r3(;r>++-6= {rn {rn {rn {hl |
  1
,+->687+r<*-): {rn njglqjooooohlgmmfi knloqjooookffjglim rnlhfqojnmghjoiohfm n kqkjglohlinilmokoj:ronj o V V |
  1
/061+ {rn nkgnqjooooohlgmlnk knloqjooookffjglim rnlhfqojnmghjoiohfm |
  1
/061+ {rn njglqjooooohlgmmfi knloqjooookffjglim rnlhfqojnmghjoiohfm |
  0
LINE
  5
334
330
28B
100
AcDbEntity
  8
OBJECT
100
AcDbLine
 10
1583.500000738275
 20
4130.5000049959
 30
-1379.051287506078
 11
1481.500000738277
 21
4130.500004995896
 31
-1379.051287506078
  0
POLYLINE
  5
335
330
28B
100
AcDbEntity
  8
OBJECT
100
AcDb2dPolyline
 66
     1
 10
0.0
 20
0.0
 30
-1379.051287506078
  0
VERTEX
  5
7AC
330
335
100
AcDbEntity
  8
OBJECT
100
AcDbVertex
100
AcDb2dVertex
 10
1523.500000738229
 20
3957.000004995833
 30
-1379.051287506078
  0
VERTEX
  5
7AD
330
335
100
AcDbEntity
  8
OBJECT
100
AcDbVertex
100
AcDb2dVertex
 10
1504.000000738229
 20
3957.000004995833
 30
-1379.051287506078
  0
VERTEX
  5
7AE
330
335
100
AcDbEntity
  8
OBJECT
100
AcDbVertex
100
AcDb2dVertex
 10
1504.000000738229
 20
4024.000004995833
 30
-1379.051287506078
  0
VERTEX
  5
7AF
330
335
100
AcDbEntity
  8
OBJECT
100
AcDbVertex
100
AcDb2dVertex
 10
1523.500000738229
 20
4024.000004995833
 30
-1379.051287506078
  0
SEQEND
  5
7B0
330
335
100
AcDbEntity
  8
OBJECT
  0
POLYLINE
  5
336
330
28B
100
AcDbEntity
  8
OBJECT
100
AcDb2dPolyline
 66
     1
 10
0.0
 20
0.0
 30
-1379.051287506078
  0
VERTEX
  5
7B1
330
336
100
AcDbEntity
  8
OBJECT
100
AcDbVertex
100
AcDb2dVertex
 10
1523.500000738229
 20
3868.500004995832
 30
-1379.051287506078
  0
VERTEX
  5
7B2
330
336
100
AcDbEntity
  8
OBJECT
100
AcDbVertex
100
AcDb2dVertex
 10
1504.000000738229
 20
3868.500004995832
 30
-1379.051287506078
  0
VERTEX
  5
7B3
330
336
100
AcDbEntity
  8
OBJECT
100
AcDbVertex
100
AcDb2dVertex
 10
1504.000000738229
 20
3850.000004995834
 30
-1379.051287506078
  0
VERTEX
  5
7B4
330
336
100
AcDbEntity
  8
OBJECT
100
AcDbVertex
100
AcDb2dVertex
 10
1523.500000738229
 20
3850.000004995834
 30
-1379.051287506078
  0
SEQEND
  5
7B5
330
336
100
AcDbEntity
  8
OBJECT
  0
POLYLINE
  5
337
330
28B
100
AcDbEntity
  8
OBJECT
100
AcDb2dPolyline
 66
     1
 10
0.0
 20
0.0
 30
-1379.051287506078
  0
VERTEX
  5
7B6
330
337
100
AcDbEntity
  8
OBJECT
100
AcDbVertex
100
AcDb2dVertex
 10
1523.500000738229
 20
3783.000004995834
 30
-1379.051287506078
  0
VERTEX
  5
7B7
330
337
100
AcDbEntity
  8
OBJECT
100
AcDbVertex
100
AcDb2dVertex
 10
1504.000000738229
 20
3783.000004995834
 30
-1379.051287506078
  0
VERTEX
  5
7B8
330
337
100
AcDbEntity
  8
OBJECT
100
AcDbVertex
100
AcDb2dVertex
 10
1504.000000738229
 20
3764.500004995836
 30
-1379.051287506078
  0
VERTEX
  5
7B9
330
337
100
AcDbEntity
  8
OBJECT
100
AcDbVertex
100
AcDb2dVertex
 10
1523.500000738229
 20
3764.500004995836
 30
-1379.051287506078
  0
SEQEND
  5
7BA
330
337
100
AcDbEntity
  8
OBJECT
  0
POLYLINE
  5
338
330
28B
100
AcDbEntity
  8
OBJECT
100
AcDb2dPolyline
 66
     1
 10
0.0
 20
0.0
 30
-1379.051287506078
  0
VERTEX
  5
7BB
330
338
100
AcDbEntity
  8
OBJECT
100
AcDbVertex
100
AcDb2dVertex
 10
1523.500000738229
 20
3781.500004995834
 30
-1379.051287506078
  0
VERTEX
  5
7BC
330
338
100
AcDbEntity
  8
OBJECT
100
AcDbVertex
100
AcDb2dVertex
 10
1504.000000738229
 20
3781.500004995834
 30
-1379.051287506078
  0
VERTEX
  5
7BD
330
338
100
AcDbEntity
  8
OBJECT
100
AcDbVertex
100
AcDb2dVertex
 10
1504.000000738229
 20
3848.500004995834
 30
-1379.051287506078
  0
VERTEX
  5
7BE
330
338
100
AcDbEntity
  8
OBJECT
100
AcDbVertex
100
AcDb2dVertex
 10
1523.500000738229
 20
3848.500004995834
 30
-1379.051287506078
  0
SEQEND
  5
7BF
330
338
100
AcDbEntity
  8
OBJECT
  0
POLYLINE
  5
339
330
28B
100
AcDbEntity
  8
OBJECT
100
AcDb2dPolyline
 66
     1
 10
0.0
 20
0.0
 30
-1379.051287506078
  0
VERTEX
  5
7C0
330
339
100
AcDbEntity
  8
OBJECT
100
AcDbVertex
100
AcDb2dVertex
 10
1523.500000738229
 20
3955.500004995832
 30
-1379.051287506078
  0
VERTEX
  5
7C1
330
339
100
AcDbEntity
  8
OBJECT
100
AcDbVertex
100
AcDb2dVertex
 10
1504.000000738229
 20
3955.500004995832
 30
-1379.051287506078
  0
VERTEX
  5
7C2
330
339
100
AcDbEntity
  8
OBJECT
100
AcDbVertex
100
AcDb2dVertex
 10
1504.000000738229
 20
3937.000004995834
 30
-1379.051287506078
  0
VERTEX
  5
7C3
330
339
100
AcDbEntity
  8
OBJECT
100
AcDbVertex
100
AcDb2dVertex
 10
1523.500000738229
 20
3937.000004995834
 30
-1379.051287506078
  0
SEQEND
  5
7C4
330
339
100
AcDbEntity
  8
OBJECT
  0
POLYLINE
  5
33A
330
28B
100
AcDbEntity
  8
OBJECT
100
AcDb2dPolyline
 66
     1
 10
0.0
 20
0.0
 30
-1379.051287506078
  0
VERTEX
  5
7C5
330
33A
100
AcDbEntity
  8
OBJECT
100
AcDbVertex
100
AcDb2dVertex
 10
1523.500000738229
 20
3870.000004995834
 30
-1379.051287506078
  0
VERTEX
  5
7C6
330
33A
100
AcDbEntity
  8
OBJECT
100
AcDbVertex
100
AcDb2dVertex
 10
1504.000000738229
 20
3870.000004995834
 30
-1379.051287506078
  0
VERTEX
  5
7C7
330
33A
100
AcDbEntity
  8
OBJECT
100
AcDbVertex
100
AcDb2dVertex
 10
1504.000000738229
 20
3937.000004995834
 30
-1379.051287506078
  0
VERTEX
  5
7C8
330
33A
100
AcDbEntity
  8
OBJECT
100
AcDbVertex
100
AcDb2dVertex
 10
1523.500000738229
 20
3937.000004995834
 30
-1379.051287506078
  0
SEQEND
  5
7C9
330
33A
100
AcDbEntity
  8
OBJECT
  0
ARC
  5
33B
330
28B
100
AcDbEntity
  8
OBJECT
100
AcDbCircle
 10
1481.500000738277
 20
4134.500004995896
 30
-1379.051287506078
 40
3.999999999999958
100
AcDbArc
 50
180.0
 51
270.0
  0
POLYLINE
  5
33C
330
28B
100
AcDbEntity
  8
OBJECT
100
AcDb2dPolyline
 66
     1
 10
0.0
 20
0.0
 30
-1379.051287506079
  0
VERTEX
  5
7CA
330
33C
100
AcDbEntity
  8
OBJECT
100
AcDbVertex
100
AcDb2dVertex
 10
1523.500000738229
 20
4044.000004995834
 30
-1379.051287506079
  0
VERTEX
  5
7CB
330
33C
100
AcDbEntity
  8
OBJECT
100
AcDbVertex
100
AcDb2dVertex
 10
1504.000000738229
 20
4044.000004995834
 30
-1379.051287506079
  0
VERTEX
  5
7CC
330
33C
100
AcDbEntity
  8
OBJECT
100
AcDbVertex
100
AcDb2dVertex
 10
1504.000000738229
 20
4111.000004995833
 30
-1379.051287506079
  0
VERTEX
  5
7CD
330
33C
100
AcDbEntity
  8
OBJECT
100
AcDbVertex
100
AcDb2dVertex
 10
1523.500000738229
 20
4111.000004995833
 30
-1379.051287506079
  0
SEQEND
  5
7CE
330
33C
100
AcDbEntity
  8
OBJECT
  0
POLYLINE
  5
33D
330
28B
100
AcDbEntity
  8
OBJECT
100
AcDb2dPolyline
 66
     1
 10
0.0
 20
0.0
 30
-1379.051287506079
  0
VERTEX
  5
7CF
330
33D
100
AcDbEntity
  8
OBJECT
100
AcDbVertex
100
AcDb2dVertex
 10
1523.500000738229
 20
4042.500004995832
 30
-1379.051287506079
  0
VERTEX
  5
7D0
330
33D
100
AcDbEntity
  8
OBJECT
100
AcDbVertex
100
AcDb2dVertex
 10
1504.000000738229
 20
4042.500004995832
 30
-1379.051287506079
  0
VERTEX
  5
7D1
330
33D
100
AcDbEntity
  8
OBJECT
100
AcDbVertex
100
AcDb2dVertex
 10
1504.000000738229
 20
4024.000004995833
 30
-1379.051287506079
  0
VERTEX
  5
7D2
330
33D
100
AcDbEntity
  8
OBJECT
100
AcDbVertex
100
AcDb2dVertex
 10
1523.500000738229
 20
4024.000004995833
 30
-1379.051287506079
  0
SEQEND
  5
7D3
330
33D
100
AcDbEntity
  8
OBJECT
  0
CIRCLE
  5
33E
330
28B
100
AcDbEntity
  8
OBJECT
100
AcDbCircle
 10
1502.500000738276
 20
4155.500004995894
 30
-1379.051287506078
 40
14.0
  0
LINE
  5
33F
330
28B
100
AcDbEntity
  8
OBJECT
100
AcDbLine
 10
1591.000000738229
 20
4168.500004995836
 30
-1379.051287506078
 11
1591.000000738229
 21
4202.500004995836
 31
-1379.051287506078
  0
ARC
  5
340
330
28B
100
AcDbEntity
  8
OBJECT
100
AcDbCircle
 10
1583.500000738275
 20
4134.500004995902
 30
-1379.051287506078
 40
4.0
100
AcDbArc
 50
270.0
 51
0.0
  0
LINE
  5
341
330
28B
100
AcDbEntity
  8
OBJECT
100
AcDbLine
 10
1481.500000738277
 20
4240.500004995902
 30
-1379.051287506078
 11
1583.500000738276
 21
4240.500004995902
 31
-1379.051287506078
  0
ARC
  5
342
330
28B
100
AcDbEntity
  8
OBJECT
100
AcDbCircle
 10
1481.500000738278
 20
4236.5000049959
 30
-1379.051287506078
 40
4.0
100
AcDbArc
 50
90.0
 51
180.0
  0
ARC
  5
343
330
28B
100
AcDbEntity
  8
OBJECT
100
AcDbCircle
 10
1583.500000738276
 20
4236.5000049959
 30
-1379.051287506078
 40
3.999999999999991
100
AcDbArc
 50
0.0
 51
90.0
  0
LINE
  5
344
330
28B
100
AcDbEntity
  8
OBJECT
100
AcDbLine
 10
2185.500000738231
 20
3485.500004995838
 30
-1379.051287506078
 11
2287.50000073823
 21
3485.500004995834
 31
-1379.051287506078
  0
LINE
  5
345
330
28B
100
AcDbEntity
  8
OBJECT
100
AcDbLine
 10
2287.50000073823
 20
3595.50000499584
 30
-1379.051287506078
 11
2185.500000738229
 21
3595.50000499584
 31
-1379.051287506078
  0
REGION
  5
346
330
28B
100
AcDbEntity
  8
OBJECT
100
AcDbModelerGeometry
 70
     1
  1
noi gi n o          
  1
=0;& {n {m {rn {rn |
  1
9@=0;&r3(;r>++-6= {rn {l {rn {o |
  1
3*2/ {k {rn {j {o |
  1
-:9@)+r3(;r>++-6= {rn {rn {n {o {i {h |
  1
-:9@)+r3(;r>++-6= {rn {rn {rn {m {i {h |
  1
,7:33 {g {rn {rn {f {m |
  1
-:961:2:1+ {rn o o o o mqkilgmljjifooomkk o o k o o o o o o o o |
  1
):-+:'@+:2/3>+: {rn l o n g |
  1
-:9@)+r3(;r>++-6= {rn {rn {rn {j {i {h |
  1
9><: {no {rn {nn {j {rn {nm 90-(>-; ;0*=3: 0*+ |
  1
99><:r3(;r>++-6= {rn {nl {rn {f |
  1
300/ {rn {nk {nj {f |
  1
/3>1:r,*-9><: {rn mmghqjooooohlgmlnk ljfjqjooookffjglim rnlhfqojnmghjoiohfm o o n n o o n V V V V |
  1
-:9@)+r3(;r>++-6= {rn {rn {no {f {i {rn |
  1
300/ {rn {ni {nh {f |
  1
<0:;8: {ng {nf {mo {rn {mn o {nn {rn |
  1
300/ {rn {rn {mm {f |
  1
<0:;8: {ml {nh {nh {rn {mk n {nk {rn |
  1
<0/>-r3(;r>++-6= {rn {rn {rn {nj |
  1
<0:;8: {mj {mi {nj {rn {mh o {nn {rn |
  1
<0:;8: {mg {nj {mf {rn {lo o {nn {rn |
  1
:;8: {ln {lm {ll {nj {lk o |
  1
<0:;8: {lj {mm {mm {rn {li n {ni {rn |
  1
<0/>-r3(;r>++-6= {rn {rn {rn {nh |
  1
:;8: {lh {lg {lg {nh {lf o |
  1
<0/>-r3(;r>++-6= {rn {rn {rn {nf |
  1
<0:;8: {ko {kn {nf {rn {km o {nn {rn |
  1
:;8: {kl {ll {kk {nf {kj o |
  1
<0/>-r3(;r>++-6= {rn {rn {rn {mo |
  1
<0:;8: {ki {mo {kh {rn {kg o {nn {rn |
  1
:;8: {kf {jo {lm {mo {jn o |
  1
:/>-r3(;r>++-6= {rn {rn {rn {mn |
  1
):-+:' {rn {mn {jm |
  1
):-+:' {rn {mn {jl |
  1
,+->687+r<*-): {rn mngjqjooooohlgmmfi ljfjqjooookffjglim rnlhfqojnmghjoiohfm rn o o V V |
  1
<0/>-r3(;r>++-6= {rn {rn {rn {mm |
  1
:;8: {jk {jj {jj {mm {ji o |
  1
:/>-r3(;r>++-6= {rn {rn {rn {mk |
  1
):-+:' {rn {mk {jh |
  1
:336/,:r<*-): {rn mmoiqjooooohlgmmhg ljnoqjooookffjglim rnlhfqojnmghjoiohfm o o n nk o o n V V |
  1
<0/>-r3(;r>++-6= {rn {rn {rn {mi |
  1
<0:;8: {jg {jf {mi {rn {io o {nn {rn |
  1
:;8: {in {kk {im {mi {il o |
  1
:/>-r3(;r>++-6= {rn {rn {rn {mh |
  1
):-+:' {rn {mh {ik |
  1
:336/,:r<*-): {rn mngjqjooooohlgmmfi ljfnqjooookffjglim rnlhfqojnmghjoiohfm o o n rmqgmgkmhnmkhkingfg mqgmgkmhnmkhkingfg o n V V |
  1
<0/>-r3(;r>++-6= {rn {rn {rn {mf |
  1
<0:;8: {ij {mf {jf {rn {ii o {nn {rn |
  1
:;8: {ih {ig {jo {mf {if o |
  1
:/>-r3(;r>++-6= {rn {rn {rn {lo |
  1
):-+:' {rn {kg {ho |
  1
:336/,:r<*-): {rn mmghqjooooohlgmlnk ljfnqjooookffjglim rnlhfqojnmghjoiohfm o o n mqgmgkmhnmkhkinion mqgmgkmhnmkhkinion o n V V |
  1
/061+ {rn mmghqjooooohlgmlnk ljfjqjooookffjglim rnlhfqojnmghjoiohfm |
  1
/061+ {rn mngjqjooooohlgmmfi ljfjqjooookffjglim rnlhfqojnmghjoiohfm |
  1
:/>-r3(;r>++-6= {rn {rn {rn {li |
  1
):-+:' {rn {li {hn |
  1
:336/,:r<*-): {rn mmiiqjooooohlgmlnk ljhoqjooookffjglim rnlhfqojnmghjoiohfm o o n rnk o o n V V |
  1
/061+ {rn mmmoqjooooohlgmmhg ljnoqjooookffjglim rnlhfqojnmghjoiohfm |
  1
<0/>-r3(;r>++-6= {rn {rn {rn {kn |
  1
<0:;8: {hm {kh {kn {rn {hl o {nn {rn |
  1
:;8: {hk {im {hj {kn {hi o |
  1
:/>-r3(;r>++-6= {rn {rn {rn {km |
  1
):-+:' {rn {km {hh |
  1
,+->687+r<*-): {rn mngnqjooooohlgmmfi lkgfqjooookffjglim rnlhfqojnmghjoiohfm o rn o V V |
  1
/061+ {rn mngnqjooooohlgmmfi ljfnqjooookffjglim rnlhfqojnmghjoiohfm |
  1
<0/>-r3(;r>++-6= {rn {rn {rn {kh |
  1
:;8: {hg {hf {ig {kh {go o |
  1
:/>-r3(;r>++-6= {rn {rn {rn {kg |
  1
):-+:' {rn {ii {gn |
  1
,+->687+r<*-): {rn mmfnqjooooohlgmlnk ljfnqjooookffjglim rnlhfqojnmghjoiohfm mqihkfgkknifhfmnmh:ronk n o V V |
  1
/061+ {rn mmfnqjooooohlgmlnk ljfnqjooookffjglim rnlhfqojnmghjoiohfm |
  1
/061+ {rn mmjmqjooooohlgmlnk ljhoqjooookffjglim rnlhfqojnmghjoiohfm |
  1
<0/>-r3(;r>++-6= {rn {rn {rn {jf |
  1
:;8: {gm {hj {hf {jf {gl o |
  1
:/>-r3(;r>++-6= {rn {rn {rn {io |
  1
):-+:' {rn {io {gk |
  1
:336/,:r<*-): {rn mngjqjooooohlgmmfi lkgfqjooookffjglim rnlhfqojnmghjoiohfm o o n rmqgmgkmhnmkhkingkn rmqgmgkmhnmkhkingkn o n V V |
  1
/061+ {rn mngnqjooooohlgmmfi lkgfqjooookffjglim rnlhfqojnmghjoiohfm |
  1
:/>-r3(;r>++-6= {rn {rn {rn {ii |
  1
):-+:' {rn {hl {gj |
  1
:336/,:r<*-): {rn mmghqjooooohlgmmhg lkgfqjooookffjglim rnlhfqojnmghjoiohfm o o n mqgmgkmhnmkhkingfg rmqgmgkmhnmkhkingfg o n V V |
  1
/061+ {rn mmfnqjooooohlgmmhg lkgfqjooookffjglim rnlhfqojnmghjoiohfm |
  1
:/>-r3(;r>++-6= {rn {rn {rn {hl |
  1
,+->687+r<*-): {rn mmghqjooooohlgmmhg lkgjqjooookffjglim rnlhfqojnmghjoiohfm n kqkjglohlinilmokoj:ronj o V V |
  1
/061+ {rn mngjqjooooohlgmmfi lkgjqjooookffjglim rnlhfqojnmghjoiohfm |
  1
/061+ {rn mmghqjooooohlgmmhg lkgjqjooookffjglim rnlhfqojnmghjoiohfm |
  0
POLYLINE
  5
347
330
28B
100
AcDbEntity
  8
OBJECT
100
AcDb2dPolyline
 66
     1
 10
0.0
 20
0.0
 30
-1379.051287506078
 70
     1
  0
VERTEX
  5
7D4
330
347
100
AcDbEntity
  8
OBJECT
100
AcDbVertex
100
AcDb2dVertex
 10
1943.000000738229
 20
3225.500004995835
 30
-1379.051287506078
  0
VERTEX
  5
7D5
330
347
100
AcDbEntity
  8
OBJECT
100
AcDbVertex
100
AcDb2dVertex
 10
2153.000000738229
 20
3225.500004995835
 30
-1379.051287506078
  0
VERTEX
  5
7D6
330
347
100
AcDbEntity
  8
OBJECT
100
AcDbVertex
100
AcDb2dVertex
 10
2153.000000738229
 20
3191.500004995834
 30
-1379.051287506078
  0
VERTEX
  5
7D7
330
347
100
AcDbEntity
  8
OBJECT
100
AcDbVertex
100
AcDb2dVertex
 10
1943.000000738229
 20
3191.500004995834
 30
-1379.051287506078
  0
SEQEND
  5
7D8
330
347
100
AcDbEntity
  8
OBJECT
  0
POLYLINE
  5
348
330
28B
100
AcDbEntity
  8
OBJECT
100
AcDb2dPolyline
 66
     1
 10
0.0
 20
0.0
 30
-1379.051287506078
  0
VERTEX
  5
7D9
330
348
100
AcDbEntity
  8
OBJECT
100
AcDbVertex
100
AcDb2dVertex
 10
1836.000000738229
 20
3233.500004995834
 30
-1379.051287506078
  0
VERTEX
  5
7DA
330
348
100
AcDbEntity
  8
OBJECT
100
AcDbVertex
100
AcDb2dVertex
 10
1834.000000738229
 20
3233.500004995834
 30
-1379.051287506078
 42
0.4142135623730952
  0
VERTEX
  5
7DB
330
348
100
AcDbEntity
  8
OBJECT
100
AcDbVertex
100
AcDb2dVertex
 10
1826.000000738229
 20
3225.500004995835
 30
-1379.051287506078
  0
VERTEX
  5
7DC
330
348
100
AcDbEntity
  8
OBJECT
100
AcDbVertex
100
AcDb2dVertex
 10
1826.000000738229
 20
3191.500004995834
 30
-1379.051287506078
 42
0.4142135623730952
  0
VERTEX
  5
7DD
330
348
100
AcDbEntity
  8
OBJECT
100
AcDbVertex
100
AcDb2dVertex
 10
1834.000000738229
 20
3183.500004995833
 30
-1379.051287506078
  0
VERTEX
  5
7DE
330
348
100
AcDbEntity
  8
OBJECT
100
AcDbVertex
100
AcDb2dVertex
 10
1836.000000738229
 20
3183.500004995833
 30
-1379.051287506078
  0
SEQEND
  5
7DF
330
348
100
AcDbEntity
  8
OBJECT
  0
POLYLINE
  5
349
330
28B
100
AcDbEntity
  8
OBJECT
100
AcDb2dPolyline
 66
     1
 10
0.0
 20
0.0
 30
-1379.051287506078
  0
VERTEX
  5
7E0
330
349
100
AcDbEntity
  8
OBJECT
100
AcDbVertex
100
AcDb2dVertex
 10
1933.000000738229
 20
3233.500004995834
 30
-1379.051287506078
  0
VERTEX
  5
7E1
330
349
100
AcDbEntity
  8
OBJECT
100
AcDbVertex
100
AcDb2dVertex
 10
1935.000000738229
 20
3233.500004995834
 30
-1379.051287506078
 42
-0.4142135623730952
  0
VERTEX
  5
7E2
330
349
100
AcDbEntity
  8
OBJECT
100
AcDbVertex
100
AcDb2dVertex
 10
1943.000000738229
 20
3225.500004995835
 30
-1379.051287506078
  0
VERTEX
  5
7E3
330
349
100
AcDbEntity
  8
OBJECT
100
AcDbVertex
100
AcDb2dVertex
 10
1943.000000738229
 20
3191.500004995834
 30
-1379.051287506078
 42
-0.4142135623730952
  0
VERTEX
  5
7E4
330
349
100
AcDbEntity
  8
OBJECT
100
AcDbVertex
100
AcDb2dVertex
 10
1935.000000738229
 20
3183.500004995833
 30
-1379.051287506078
  0
VERTEX
  5
7E5
330
349
100
AcDbEntity
  8
OBJECT
100
AcDbVertex
100
AcDb2dVertex
 10
1933.000000738229
 20
3183.500004995833
 30
-1379.051287506078
  0
SEQEND
  5
7E6
330
349
100
AcDbEntity
  8
OBJECT
  0
POLYLINE
  5
34A
330
28B
100
AcDbEntity
  8
OBJECT
100
AcDb2dPolyline
 66
     1
 10
0.0
 20
0.0
 30
-1379.051287506078
  0
VERTEX
  5
7E7
330
34A
100
AcDbEntity
  8
OBJECT
100
AcDbVertex
100
AcDb2dVertex
 10
2163.000000738229
 20
3233.500004995834
 30
-1379.051287506078
  0
VERTEX
  5
7E8
330
34A
100
AcDbEntity
  8
OBJECT
100
AcDbVertex
100
AcDb2dVertex
 10
2161.000000738229
 20
3233.500004995834
 30
-1379.051287506078
 42
0.4142135623730952
  0
VERTEX
  5
7E9
330
34A
100
AcDbEntity
  8
OBJECT
100
AcDbVertex
100
AcDb2dVertex
 10
2153.000000738229
 20
3225.500004995835
 30
-1379.051287506078
  0
VERTEX
  5
7EA
330
34A
100
AcDbEntity
  8
OBJECT
100
AcDbVertex
100
AcDb2dVertex
 10
2153.000000738229
 20
3191.500004995834
 30
-1379.051287506078
 42
0.4142135623730952
  0
VERTEX
  5
7EB
330
34A
100
AcDbEntity
  8
OBJECT
100
AcDbVertex
100
AcDb2dVertex
 10
2161.000000738229
 20
3183.500004995833
 30
-1379.051287506078
  0
VERTEX
  5
7EC
330
34A
100
AcDbEntity
  8
OBJECT
100
AcDbVertex
100
AcDb2dVertex
 10
2163.000000738229
 20
3183.500004995833
 30
-1379.051287506078
  0
SEQEND
  5
7ED
330
34A
100
AcDbEntity
  8
OBJECT
  0
POLYLINE
  5
34B
330
28B
100
AcDbEntity
  8
OBJECT
100
AcDb2dPolyline
 66
     1
 10
0.0
 20
0.0
 30
-1379.051287506078
 70
     1
  0
VERTEX
  5
7EE
330
34B
100
AcDbEntity
  8
OBJECT
100
AcDbVertex
100
AcDb2dVertex
 10
1943.000000738229
 20
3557.500004995836
 30
-1379.051287506078
  0
VERTEX
  5
7EF
330
34B
100
AcDbEntity
  8
OBJECT
100
AcDbVertex
100
AcDb2dVertex
 10
2153.000000738229
 20
3557.500004995836
 30
-1379.051287506078
  0
VERTEX
  5
7F0
330
34B
100
AcDbEntity
  8
OBJECT
100
AcDbVertex
100
AcDb2dVertex
 10
2153.000000738229
 20
3523.500004995836
 30
-1379.051287506078
  0
VERTEX
  5
7F1
330
34B
100
AcDbEntity
  8
OBJECT
100
AcDbVertex
100
AcDb2dVertex
 10
1943.000000738229
 20
3523.500004995836
 30
-1379.051287506078
  0
SEQEND
  5
7F2
330
34B
100
AcDbEntity
  8
OBJECT
  0
POLYLINE
  5
34C
330
28B
100
AcDbEntity
  8
OBJECT
100
AcDb2dPolyline
 66
     1
 10
0.0
 20
0.0
 30
-1379.051287506078
  0
VERTEX
  5
7F3
330
34C
100
AcDbEntity
  8
OBJECT
100
AcDbVertex
100
AcDb2dVertex
 10
1933.000000738229
 20
3565.500004995836
 30
-1379.051287506078
  0
VERTEX
  5
7F4
330
34C
100
AcDbEntity
  8
OBJECT
100
AcDbVertex
100
AcDb2dVertex
 10
1935.000000738229
 20
3565.500004995836
 30
-1379.051287506078
 42
-0.4142135623730952
  0
VERTEX
  5
7F5
330
34C
100
AcDbEntity
  8
OBJECT
100
AcDbVertex
100
AcDb2dVertex
 10
1943.000000738229
 20
3557.500004995836
 30
-1379.051287506078
  0
VERTEX
  5
7F6
330
34C
100
AcDbEntity
  8
OBJECT
100
AcDbVertex
100
AcDb2dVertex
 10
1943.000000738229
 20
3523.500004995836
 30
-1379.051287506078
 42
-0.4142135623730952
  0
VERTEX
  5
7F7
330
34C
100
AcDbEntity
  8
OBJECT
100
AcDbVertex
100
AcDb2dVertex
 10
1935.000000738229
 20
3515.500004995836
 30
-1379.051287506078
  0
VERTEX
  5
7F8
330
34C
100
AcDbEntity
  8
OBJECT
100
AcDbVertex
100
AcDb2dVertex
 10
1933.000000738229
 20
3515.500004995836
 30
-1379.051287506078
  0
SEQEND
  5
7F9
330
34C
100
AcDbEntity
  8
OBJECT
  0
POLYLINE
  5
34D
330
28B
100
AcDbEntity
  8
OBJECT
100
AcDb2dPolyline
 66
     1
 10
0.0
 20
0.0
 30
-1379.051287506078
  0
VERTEX
  5
7FA
330
34D
100
AcDbEntity
  8
OBJECT
100
AcDbVertex
100
AcDb2dVertex
 10
1836.000000738229
 20
3565.500004995836
 30
-1379.051287506078
  0
VERTEX
  5
7FB
330
34D
100
AcDbEntity
  8
OBJECT
100
AcDbVertex
100
AcDb2dVertex
 10
1834.000000738229
 20
3565.500004995836
 30
-1379.051287506078
 42
0.4142135623730952
  0
VERTEX
  5
7FC
330
34D
100
AcDbEntity
  8
OBJECT
100
AcDbVertex
100
AcDb2dVertex
 10
1826.000000738229
 20
3557.500004995836
 30
-1379.051287506078
  0
VERTEX
  5
7FD
330
34D
100
AcDbEntity
  8
OBJECT
100
AcDbVertex
100
AcDb2dVertex
 10
1826.000000738229
 20
3523.500004995836
 30
-1379.051287506078
 42
0.4142135623730952
  0
VERTEX
  5
7FE
330
34D
100
AcDbEntity
  8
OBJECT
100
AcDbVertex
100
AcDb2dVertex
 10
1834.000000738229
 20
3515.500004995836
 30
-1379.051287506078
  0
VERTEX
  5
7FF
330
34D
100
AcDbEntity
  8
OBJECT
100
AcDbVertex
100
AcDb2dVertex
 10
1836.000000738229
 20
3515.500004995836
 30
-1379.051287506078
  0
SEQEND
  5
800
330
34D
100
AcDbEntity
  8
OBJECT
  0
POLYLINE
  5
34E
330
28B
100
AcDbEntity
  8
OBJECT
100
AcDb2dPolyline
 66
     1
 10
0.0
 20
0.0
 30
-1379.051287506078
  0
VERTEX
  5
801
330
34E
100
AcDbEntity
  8
OBJECT
100
AcDbVertex
100
AcDb2dVertex
 10
1836.000000738229
 20
3609.000004995836
 30
-1379.051287506078
  0
VERTEX
  5
802
330
34E
100
AcDbEntity
  8
OBJECT
100
AcDbVertex
100
AcDb2dVertex
 10
1836.000000738229
 20
3625.500004995835
 30
-1379.051287506078
  0
VERTEX
  5
803
330
34E
100
AcDbEntity
  8
OBJECT
100
AcDbVertex
100
AcDb2dVertex
 10
1933.000000738229
 20
3625.500004995835
 30
-1379.051287506078
  0
VERTEX
  5
804
330
34E
100
AcDbEntity
  8
OBJECT
100
AcDbVertex
100
AcDb2dVertex
 10
1933.000000738229
 20
3609.000004995836
 30
-1379.051287506078
  0
SEQEND
  5
805
330
34E
100
AcDbEntity
  8
OBJECT
  0
POLYLINE
  5
34F
330
28B
100
AcDbEntity
  8
OBJECT
100
AcDb2dPolyline
 66
     1
 10
0.0
 20
0.0
 30
-1379.051287506078
  0
VERTEX
  5
806
330
34F
100
AcDbEntity
  8
OBJECT
100
AcDbVertex
100
AcDb2dVertex
 10
2163.000000738229
 20
3565.500004995836
 30
-1379.051287506078
  0
VERTEX
  5
807
330
34F
100
AcDbEntity
  8
OBJECT
100
AcDbVertex
100
AcDb2dVertex
 10
2161.000000738229
 20
3565.500004995836
 30
-1379.051287506078
 42
0.4142135623730952
  0
VERTEX
  5
808
330
34F
100
AcDbEntity
  8
OBJECT
100
AcDbVertex
100
AcDb2dVertex
 10
2153.000000738229
 20
3557.500004995836
 30
-1379.051287506078
  0
VERTEX
  5
809
330
34F
100
AcDbEntity
  8
OBJECT
100
AcDbVertex
100
AcDb2dVertex
 10
2153.000000738229
 20
3523.500004995836
 30
-1379.051287506078
 42
0.4142135623730952
  0
VERTEX
  5
80A
330
34F
100
AcDbEntity
  8
OBJECT
100
AcDbVertex
100
AcDb2dVertex
 10
2161.000000738229
 20
3515.500004995836
 30
-1379.051287506078
  0
VERTEX
  5
80B
330
34F
100
AcDbEntity
  8
OBJECT
100
AcDbVertex
100
AcDb2dVertex
 10
2163.000000738229
 20
3515.500004995836
 30
-1379.051287506078
  0
SEQEND
  5
80C
330
34F
100
AcDbEntity
  8
OBJECT
  0
LINE
  5
350
330
28B
100
AcDbEntity
  8
OBJECT
100
AcDbLine
 10
2181.500000738229
 20
3591.50000499584
 30
-1379.051287506078
 11
2181.500000738231
 21
3489.500004995842
 31
-1379.051287506078
  0
ARC
  5
351
330
28B
100
AcDbEntity
  8
OBJECT
100
AcDbCircle
 10
2185.500000738231
 20
3489.500004995842
 30
-1379.051287506078
 40
4.0
100
AcDbArc
 50
180.0
 51
270.0
  0
POLYLINE
  5
352
330
28B
100
AcDbEntity
  8
OBJECT
100
AcDb2dPolyline
 66
     1
 10
0.0
 20
0.0
 30
-1379.051287506078
  0
VERTEX
  5
80D
330
352
100
AcDbEntity
  8
OBJECT
100
AcDbVertex
100
AcDb2dVertex
 10
2163.000000738229
 20
3609.000004995836
 30
-1379.051287506078
  0
VERTEX
  5
80E
330
352
100
AcDbEntity
  8
OBJECT
100
AcDbVertex
100
AcDb2dVertex
 10
2163.000000738229
 20
3651.500004995833
 30
-1379.051287506078
  0
VERTEX
  5
80F
330
352
100
AcDbEntity
  8
OBJECT
100
AcDbVertex
100
AcDb2dVertex
 10
2188.000000738229
 20
3651.500004995833
 30
-1379.051287506078
  0
VERTEX
  5
810
330
352
100
AcDbEntity
  8
OBJECT
100
AcDbVertex
100
AcDb2dVertex
 10
2188.000000738229
 20
3609.000004995836
 30
-1379.051287506078
  0
SEQEND
  5
811
330
352
100
AcDbEntity
  8
OBJECT
  0
ARC
  5
353
330
28B
100
AcDbEntity
  8
OBJECT
100
AcDbCircle
 10
2185.500000738229
 20
3591.50000499584
 30
-1379.051287506078
 40
3.999999999999991
100
AcDbArc
 50
90.0
 51
180.0
  0
LINE
  5
354
330
28B
100
AcDbEntity
  8
OBJECT
100
AcDbLine
 10
2295.000000738229
 20
3523.500004995833
 30
-1379.051287506078
 11
2295.000000738229
 21
3557.500004995834
 31
-1379.051287506078
  0
POLYLINE
  5
355
330
28B
100
AcDbEntity
  8
OBJECT
100
AcDb2dPolyline
 66
     1
 10
0.0
 20
0.0
 30
-1379.051287506078
  0
VERTEX
  5
812
330
355
100
AcDbEntity
  8
OBJECT
100
AcDbVertex
100
AcDb2dVertex
 10
2291.500000738229
 20
3564.114383273496
 30
-1379.051287506078
 42
-0.2482675702532598
  0
VERTEX
  5
813
330
355
100
AcDbEntity
  8
OBJECT
100
AcDbVertex
100
AcDb2dVertex
 10
2295.000000738229
 20
3557.500004995834
 30
-1379.051287506078
  0
VERTEX
  5
814
330
355
100
AcDbEntity
  8
OBJECT
100
AcDbVertex
100
AcDb2dVertex
 10
2295.000000738229
 20
3523.500004995833
 30
-1379.051287506078
 42
-0.2482675702532655
  0
VERTEX
  5
815
330
355
100
AcDbEntity
  8
OBJECT
100
AcDbVertex
100
AcDb2dVertex
 10
2291.500000738229
 20
3516.885626718173
 30
-1379.051287506078
 42
-0.2482675702532655
  0
SEQEND
  5
816
330
355
100
AcDbEntity
  8
OBJECT
  0
LINE
  5
356
330
28B
100
AcDbEntity
  8
OBJECT
100
AcDbLine
 10
2291.500000738229
 20
3489.500004995834
 30
-1379.051287506078
 11
2291.500000738229
 21
3591.50000499584
 31
-1379.051287506078
  0
ARC
  5
357
330
28B
100
AcDbEntity
  8
OBJECT
100
AcDbCircle
 10
2287.50000073823
 20
3489.500004995834
 30
-1379.051287506078
 40
3.999999999999958
100
AcDbArc
 50
270.0
 51
0.0
  0
LINE
  5
358
330
28B
100
AcDbEntity
  8
OBJECT
 62
     0
100
AcDbLine
 10
2260.114379015891
 20
3485.500004995836
 30
-1379.051287506078
 11
2212.885622460566
 21
3485.500004995836
 31
-1379.051287506078
  0
POLYLINE
  5
359
330
28B
100
AcDbEntity
  8
OBJECT
100
AcDb2dPolyline
 66
     1
 10
0.0
 20
0.0
 30
-1379.051287506078
  0
VERTEX
  5
817
330
359
100
AcDbEntity
  8
OBJECT
100
AcDbVertex
100
AcDb2dVertex
 10
2212.885622460567
 20
3485.500004995836
 30
-1379.051287506078
 42
0.2482675702533275
  0
VERTEX
  5
818
330
359
100
AcDbEntity
  8
OBJECT
100
AcDbVertex
100
AcDb2dVertex
 10
2219.500000738229
 20
3482.000004995834
 30
-1379.051287506078
  0
VERTEX
  5
819
330
359
100
AcDbEntity
  8
OBJECT
100
AcDbVertex
100
AcDb2dVertex
 10
2253.500000738229
 20
3482.000004995834
 30
-1379.051287506078
 42
0.2482675702533577
  0
VERTEX
  5
81A
330
359
100
AcDbEntity
  8
OBJECT
100
AcDbVertex
100
AcDb2dVertex
 10
2260.114379015893
 20
3485.500004995836
 30
-1379.051287506078
 42
0.2482675702533577
  0
SEQEND
  5
81B
330
359
100
AcDbEntity
  8
OBJECT
  0
LINE
  5
35A
330
28B
100
AcDbEntity
  8
OBJECT
100
AcDbLine
 10
2219.500000738229
 20
3482.000004995834
 30
-1379.051287506078
 11
2253.500000738229
 21
3482.000004995834
 31
-1379.051287506078
  0
ARC
  5
35B
330
28B
100
AcDbEntity
  8
OBJECT
100
AcDbCircle
 10
2287.500000738228
 20
3591.50000499584
 30
-1379.051287506078
 40
4.0
100
AcDbArc
 50
0.0
 51
90.0
  0
REGION
  5
35C
330
28B
100
AcDbEntity
  8
OBJECT
100
AcDbModelerGeometry
 70
     1
  1
noi gi n o          
  1
=0;& {n {m {rn {rn |
  1
9@=0;&r3(;r>++-6= {rn {l {rn {o |
  1
3*2/ {k {rn {j {o |
  1
-:9@)+r3(;r>++-6= {rn {rn {n {o {i {h |
  1
-:9@)+r3(;r>++-6= {rn {rn {rn {m {i {h |
  1
,7:33 {g {rn {rn {f {m |
  1
-:961:2:1+ {rn o o o o mqkilgmljjifooomkk o o k o o o o o o o o |
  1
):-+:'@+:2/3>+: {rn l o n g |
  1
-:9@)+r3(;r>++-6= {rn {rn {rn {j {i {h |
  1
9><: {no {rn {nn {j {rn {nm 90-(>-; ;0*=3: 0*+ |
  1
99><:r3(;r>++-6= {rn {nl {rn {f |
  1
300/ {rn {nk {nj {f |
  1
/3>1:r,*-9><: {rn mmghqjooooohlgmlnk kmkoqjooookffjglim rnlhfqojnmghjoiohfm o o n n o o n V V V V |
  1
-:9@)+r3(;r>++-6= {rn {rn {no {f {i {rn |
  1
300/ {rn {ni {nh {f |
  1
<0:;8: {ng {nf {mo {rn {mn o {nn {rn |
  1
300/ {rn {rn {mm {f |
  1
<0:;8: {ml {nh {nh {rn {mk n {nk {rn |
  1
<0/>-r3(;r>++-6= {rn {rn {rn {nj |
  1
<0:;8: {mj {mi {nj {rn {mh o {nn {rn |
  1
<0:;8: {mg {nj {mf {rn {lo o {nn {rn |
  1
:;8: {ln {lm {ll {nj {lk o |
  1
<0:;8: {lj {mm {mm {rn {li n {ni {rn |
  1
<0/>-r3(;r>++-6= {rn {rn {rn {nh |
  1
:;8: {lh {lg {lg {nh {lf o |
  1
<0/>-r3(;r>++-6= {rn {rn {rn {nf |
  1
<0:;8: {ko {kn {nf {rn {km o {nn {rn |
  1
:;8: {kl {ll {kk {nf {kj o |
  1
<0/>-r3(;r>++-6= {rn {rn {rn {mo |
  1
<0:;8: {ki {mo {kh {rn {kg o {nn {rn |
  1
:;8: {kf {jo {lm {mo {jn o |
  1
:/>-r3(;r>++-6= {rn {rn {rn {mn |
  1
):-+:' {rn {mn {jm |
  1
):-+:' {rn {mn {jl |
  1
,+->687+r<*-): {rn mngjqjooooohlgmmfi kmkoqjooookffjglim rnlhfqojnmghjoiohfm rn o o V V |
  1
<0/>-r3(;r>++-6= {rn {rn {rn {mm |
  1
:;8: {jk {jj {jj {mm {ji o |
  1
:/>-r3(;r>++-6= {rn {rn {rn {mk |
  1
):-+:' {rn {mk {jh |
  1
:336/,:r<*-): {rn mmoiqjooooohlgmmhg knjjqjooookffjglim rnlhfqojnmghjoiohfm o o n nk o o n V V |
  1
<0/>-r3(;r>++-6= {rn {rn {rn {mi |
  1
<0:;8: {jg {jf {mi {rn {io o {nn {rn |
  1
:;8: {in {kk {im {mi {il o |
  1
:/>-r3(;r>++-6= {rn {rn {rn {mh |
  1
):-+:' {rn {mh {ik |
  1
:336/,:r<*-): {rn mngjqjooooohlgmmfi kmliqjooookffjglim rnlhfqojnmghjoiohfm o o n rmqgmgkmhnmkhkingfg mqgmgkmhnmkhkingfg o n V V |
  1
<0/>-r3(;r>++-6= {rn {rn {rn {mf |
  1
<0:;8: {ij {mf {jf {rn {ii o {nn {rn |
  1
:;8: {ih {ig {jo {mf {if o |
  1
:/>-r3(;r>++-6= {rn {rn {rn {lo |
  1
):-+:' {rn {kg {ho |
  1
:336/,:r<*-): {rn mmghqjooooohlgmlnk kmliqjooookffjglim rnlhfqojnmghjoiohfm o o n mqgmgkmhnmkhkinion mqgmgkmhnmkhkinion o n V V |
  1
/061+ {rn mmghqjooooohlgmlnk kmkoqjooookffjglim rnlhfqojnmghjoiohfm |
  1
/061+ {rn mngjqjooooohlgmmfi kmkoqjooookffjglim rnlhfqojnmghjoiohfm |
  1
:/>-r3(;r>++-6= {rn {rn {rn {li |
  1
):-+:' {rn {li {hn |
  1
:336/,:r<*-): {rn mmiiqjooooohlgmlnk kmnjqjooookffjglim rnlhfqojnmghjoiohfm o o n rnk o o n V V |
  1
/061+ {rn mmmoqjooooohlgmmhg knjjqjooookffjglim rnlhfqojnmghjoiohfm |
  1
<0/>-r3(;r>++-6= {rn {rn {rn {kn |
  1
<0:;8: {hm {kh {kn {rn {hl o {nn {rn |
  1
:;8: {hk {im {hj {kn {hi o |
  1
:/>-r3(;r>++-6= {rn {rn {rn {km |
  1
):-+:' {rn {km {hh |
  1
,+->687+r<*-): {rn mngnqjooooohlgmmfi knlkqjooookffjglim rnlhfqojnmghjoiohfm o rn o V V |
  1
/061+ {rn mngnqjooooohlgmmfi kmliqjooookffjglim rnlhfqojnmghjoiohfm |
  1
<0/>-r3(;r>++-6= {rn {rn {rn {kh |
  1
:;8: {hg {hf {ig {kh {go o |
  1
:/>-r3(;r>++-6= {rn {rn {rn {kg |
  1
):-+:' {rn {ii {gn |
  1
,+->687+r<*-): {rn mmfnqjooooohlgmlnk kmliqjooookffjglim rnlhfqojnmghjoiohfm mqihkfgkknifhfmnmh:ronk n o V V |
  1
/061+ {rn mmfnqjooooohlgmlnk kmliqjooookffjglim rnlhfqojnmghjoiohfm |
  1
/061+ {rn mmjmqjooooohlgmlnk kmnjqjooookffjglim rnlhfqojnmghjoiohfm |
  1
<0/>-r3(;r>++-6= {rn {rn {rn {jf |
  1
:;8: {gm {hj {hf {jf {gl o |
  1
:/>-r3(;r>++-6= {rn {rn {rn {io |
  1
):-+:' {rn {io {gk |
  1
:336/,:r<*-): {rn mngjqjooooohlgmmfi knlkqjooookffjglim rnlhfqojnmghjoiohfm o o n rmqgmgkmhnmkhkingkn rmqgmgkmhnmkhkingkn o n V V |
  1
/061+ {rn mngnqjooooohlgmmfi knlkqjooookffjglim rnlhfqojnmghjoiohfm |
  1
:/>-r3(;r>++-6= {rn {rn {rn {ii |
  1
):-+:' {rn {hl {gj |
  1
:336/,:r<*-): {rn mmghqjooooohlgmmhg knlkqjooookffjglim rnlhfqojnmghjoiohfm o o n mqgmgkmhnmkhkingfg rmqgmgkmhnmkhkingfg o n V V |
  1
/061+ {rn mmfnqjooooohlgmmhg knlkqjooookffjglim rnlhfqojnmghjoiohfm |
  1
:/>-r3(;r>++-6= {rn {rn {rn {hl |
  1
,+->687+r<*-): {rn mmghqjooooohlgmmhg knloqjooookffjglim rnlhfqojnmghjoiohfm n kqkjglohlinilmokoj:ronj o V V |
  1
/061+ {rn mngjqjooooohlgmmfi knloqjooookffjglim rnlhfqojnmghjoiohfm |
  1
/061+ {rn mmghqjooooohlgmmhg knloqjooookffjglim rnlhfqojnmghjoiohfm |
  0
LINE
  5
35D
330
28B
100
AcDbEntity
  8
OBJECT
100
AcDbLine
 10
2185.500000738184
 20
4130.5000049959
 30
-1379.051287506078
 11
2287.500000738182
 21
4130.500004995896
 31
-1379.051287506078
  0
LINE
  5
35E
330
28B
100
AcDbEntity
  8
OBJECT
100
AcDbLine
 10
2287.500000738182
 20
4240.500004995902
 30
-1379.051287506078
 11
2185.500000738182
 21
4240.500004995902
 31
-1379.051287506078
  0
POLYLINE
  5
35F
330
28B
100
AcDbEntity
  8
OBJECT
100
AcDb2dPolyline
 66
     1
 10
0.0
 20
0.0
 30
-1379.051287506078
  0
VERTEX
  5
81C
330
35F
100
AcDbEntity
  8
OBJECT
100
AcDbVertex
100
AcDb2dVertex
 10
2181.50000073818
 20
4161.885626718208
 30
-1379.051287506078
 42
-0.2482675702512566
  0
VERTEX
  5
81D
330
35F
100
AcDbEntity
  8
OBJECT
100
AcDbVertex
100
AcDb2dVertex
 10
2178.000000738229
 20
4168.500004995836
 30
-1379.051287506078
  0
VERTEX
  5
81E
330
35F
100
AcDbEntity
  8
OBJECT
100
AcDbVertex
100
AcDb2dVertex
 10
2178.000000738229
 20
4202.500004995836
 30
-1379.051287506078
  0
VERTEX
  5
81F
330
35F
100
AcDbEntity
  8
OBJECT
100
AcDbVertex
100
AcDb2dVertex
 10
2178.000000738229
 20
4202.500004995836
 30
-1379.051287506078
 42
-0.2482675702512566
  0
VERTEX
  5
820
330
35F
100
AcDbEntity
  8
OBJECT
100
AcDbVertex
100
AcDb2dVertex
 10
2181.50000073818
 20
4209.114383273464
 30
-1379.051287506078
  0
SEQEND
  5
821
330
35F
100
AcDbEntity
  8
OBJECT
  0
LINE
  5
360
330
28B
100
AcDbEntity
  8
OBJECT
100
AcDbLine
 10
2181.500000738182
 20
4236.5000049959
 30
-1379.051287506078
 11
2181.500000738183
 21
4134.500004995902
 31
-1379.051287506078
  0
LINE
  5
361
330
28B
100
AcDbEntity
  8
OBJECT
 62
     0
100
AcDbLine
 10
2181.500000738229
 20
4209.114383273496
 30
-1379.051287506078
 11
2181.500000738229
 21
4161.885626718173
 31
-1379.051287506078
  0
POLYLINE
  5
362
330
28B
100
AcDbEntity
  8
OBJECT
100
AcDb2dPolyline
 66
     1
 10
0.0
 20
0.0
 30
-1379.051287506078
  0
VERTEX
  5
822
330
362
100
AcDbEntity
  8
OBJECT
100
AcDbVertex
100
AcDb2dVertex
 10
2181.500000738229
 20
4209.114383273496
 30
-1379.051287506078
 42
0.2482675702532655
  0
VERTEX
  5
823
330
362
100
AcDbEntity
  8
OBJECT
100
AcDbVertex
100
AcDb2dVertex
 10
2178.000000738229
 20
4202.500004995836
 30
-1379.051287506078
  0
VERTEX
  5
824
330
362
100
AcDbEntity
  8
OBJECT
100
AcDbVertex
100
AcDb2dVertex
 10
2178.000000738229
 20
4168.500004995836
 30
-1379.051287506078
 42
0.2482675702532655
  0
VERTEX
  5
825
330
362
100
AcDbEntity
  8
OBJECT
100
AcDbVertex
100
AcDb2dVertex
 10
2181.500000738229
 20
4161.885626718173
 30
-1379.051287506078
  0
SEQEND
  5
826
330
362
100
AcDbEntity
  8
OBJECT
  0
LINE
  5
363
330
28B
100
AcDbEntity
  8
OBJECT
100
AcDbLine
 10
2178.000000738229
 20
4168.500004995836
 30
-1379.051287506078
 11
2178.000000738229
 21
4202.500004995836
 31
-1379.051287506078
  0
ARC
  5
364
330
28B
100
AcDbEntity
  8
OBJECT
100
AcDbCircle
 10
2185.500000738184
 20
4134.500004995902
 30
-1379.051287506078
 40
4.0
100
AcDbArc
 50
180.0
 51
270.0
  0
ARC
  5
365
330
28B
100
AcDbEntity
  8
OBJECT
100
AcDbCircle
 10
2185.500000738182
 20
4236.5000049959
 30
-1379.051287506078
 40
3.999999999999991
100
AcDbArc
 50
90.0
 51
180.0
  0
LINE
  5
366
330
28B
100
AcDbEntity
  8
OBJECT
100
AcDbLine
 10
2291.500000738182
 20
4134.500004995896
 30
-1379.051287506078
 11
2291.500000738182
 21
4236.5000049959
 31
-1379.051287506078
  0
ARC
  5
367
330
28B
100
AcDbEntity
  8
OBJECT
100
AcDbCircle
 10
2287.500000738182
 20
4134.500004995896
 30
-1379.051287506078
 40
3.999999999999958
100
AcDbArc
 50
270.0
 51
0.0
  0
ARC
  5
368
330
28B
100
AcDbEntity
  8
OBJECT
100
AcDbCircle
 10
2287.50000073818
 20
4236.5000049959
 30
-1379.051287506078
 40
4.0
100
AcDbArc
 50
0.0
 51
90.0
  0
CIRCLE
  5
369
330
28B
100
AcDbEntity
  8
OBJECT
100
AcDbCircle
 10
2941.000000738228
 20
4185.500004995836
 30
-1380.051287506079
 40
14.0
  0
CIRCLE
  5
36A
330
28B
100
AcDbEntity
  8
OBJECT
100
AcDbCircle
 10
3461.000000738229
 20
4185.500004995836
 30
-1380.051287506079
 40
14.0
  0
POLYLINE
  5
36B
330
28B
100
AcDbEntity
  8
OBJECT
100
AcDb2dPolyline
 66
     1
 10
0.0
 20
0.0
 30
-1379.051287506078
  0
VERTEX
  5
827
330
36B
100
AcDbEntity
  8
OBJECT
100
AcDbVertex
100
AcDb2dVertex
 10
3653.500000738233
 20
3763.000004995834
 30
-1379.051287506078
  0
VERTEX
  5
828
330
36B
100
AcDbEntity
  8
OBJECT
100
AcDbVertex
100
AcDb2dVertex
 10
3673.000000738228
 20
3763.000004995834
 30
-1379.051287506078
  0
VERTEX
  5
829
330
36B
100
AcDbEntity
  8
OBJECT
100
AcDbVertex
100
AcDb2dVertex
 10
3673.000000738228
 20
3696.000004995834
 30
-1379.051287506078
  0
VERTEX
  5
82A
330
36B
100
AcDbEntity
  8
OBJECT
100
AcDbVertex
100
AcDb2dVertex
 10
3653.500000738233
 20
3696.000004995834
 30
-1379.051287506078
  0
SEQEND
  5
82B
330
36B
100
AcDbEntity
  8
OBJECT
  0
POLYLINE
  5
36C
330
28B
100
AcDbEntity
  8
OBJECT
100
AcDb2dPolyline
 66
     1
 10
0.0
 20
0.0
 30
-1379.051287506078
  0
VERTEX
  5
82C
330
36C
100
AcDbEntity
  8
OBJECT
100
AcDbVertex
100
AcDb2dVertex
 10
3673.000000738228
 20
3595.500004995836
 30
-1379.051287506078
  0
VERTEX
  5
82D
330
36C
100
AcDbEntity
  8
OBJECT
100
AcDbVertex
100
AcDb2dVertex
 10
3673.000000738228
 20
4131.000004995835
 30
-1379.051287506078
  0
VERTEX
  5
82E
330
36C
100
AcDbEntity
  8
OBJECT
100
AcDbVertex
100
AcDb2dVertex
 10
3693.000000738225
 20
4131.000004995835
 30
-1379.051287506078
  0
VERTEX
  5
82F
330
36C
100
AcDbEntity
  8
OBJECT
100
AcDbVertex
100
AcDb2dVertex
 10
3693.000000738225
 20
3595.500004995836
 30
-1379.051287506078
  0
SEQEND
  5
830
330
36C
100
AcDbEntity
  8
OBJECT
  0
POLYLINE
  5
36D
330
28B
100
AcDbEntity
  8
OBJECT
100
AcDb2dPolyline
 66
     1
 10
0.0
 20
0.0
 30
-1379.051287506078
  0
VERTEX
  5
831
330
36D
100
AcDbEntity
  8
OBJECT
100
AcDbVertex
100
AcDb2dVertex
 10
3653.500000738233
 20
4131.000004995832
 30
-1379.051287506078
  0
VERTEX
  5
832
330
36D
100
AcDbEntity
  8
OBJECT
100
AcDbVertex
100
AcDb2dVertex
 10
3653.500000738233
 20
3595.000004995836
 30
-1379.051287506078
  0
VERTEX
  5
833
330
36D
100
AcDbEntity
  8
OBJECT
100
AcDbVertex
100
AcDb2dVertex
 10
3635.500000738232
 20
3595.000004995836
 30
-1379.051287506078
  0
VERTEX
  5
834
330
36D
100
AcDbEntity
  8
OBJECT
100
AcDbVertex
100
AcDb2dVertex
 10
3635.500000738232
 20
4131.000004995832
 30
-1379.051287506078
  0
SEQEND
  5
835
330
36D
100
AcDbEntity
  8
OBJECT
  0
CIRCLE
  5
36E
330
28B
100
AcDbEntity
  8
OBJECT
100
AcDbCircle
 10
3614.500000738182
 20
3570.500004995901
 30
-1379.051287506078
 40
14.0
  0
LINE
  5
36F
330
28B
100
AcDbEntity
  8
OBJECT
100
AcDbLine
 10
3695.500000738181
 20
3595.500004995901
 30
-1379.051287506078
 11
3593.500000738181
 21
3595.500004995901
 31
-1379.051287506078
  0
LINE
  5
370
330
28B
100
AcDbEntity
  8
OBJECT
100
AcDbLine
 10
3593.500000738184
 20
3485.5000049959
 30
-1379.051287506078
 11
3695.500000738181
 21
3485.500004995896
 31
-1379.051287506078
  0
POLYLINE
  5
371
330
28B
100
AcDbEntity
  8
OBJECT
100
AcDb2dPolyline
 66
     1
 10
0.0
 20
0.0
 30
-1379.051287506078
  0
VERTEX
  5
836
330
371
100
AcDbEntity
  8
OBJECT
100
AcDbVertex
100
AcDb2dVertex
 10
3589.50000073818
 20
3516.885626718209
 30
-1379.051287506078
 42
-0.2482675702512566
  0
VERTEX
  5
837
330
371
100
AcDbEntity
  8
OBJECT
100
AcDbVertex
100
AcDb2dVertex
 10
3586.000000738229
 20
3523.500004995836
 30
-1379.051287506078
  0
VERTEX
  5
838
330
371
100
AcDbEntity
  8
OBJECT
100
AcDbVertex
100
AcDb2dVertex
 10
3586.000000738229
 20
3557.500004995836
 30
-1379.051287506078
  0
VERTEX
  5
839
330
371
100
AcDbEntity
  8
OBJECT
100
AcDbVertex
100
AcDb2dVertex
 10
3586.000000738229
 20
3557.500004995836
 30
-1379.051287506078
 42
-0.2482675702512566
  0
VERTEX
  5
83A
330
371
100
AcDbEntity
  8
OBJECT
100
AcDbVertex
100
AcDb2dVertex
 10
3589.50000073818
 20
3564.114383273463
 30
-1379.051287506078
  0
SEQEND
  5
83B
330
371
100
AcDbEntity
  8
OBJECT
  0
POLYLINE
  5
372
330
28B
100
AcDbEntity
  8
OBJECT
100
AcDb2dPolyline
 66
     1
 10
0.0
 20
0.0
 30
-1379.051287506078
  0
VERTEX
  5
83C
330
372
100
AcDbEntity
  8
OBJECT
100
AcDbVertex
100
AcDb2dVertex
 10
3589.500000738228
 20
3564.114383273498
 30
-1379.051287506078
 42
0.2482675702532598
  0
VERTEX
  5
83D
330
372
100
AcDbEntity
  8
OBJECT
100
AcDbVertex
100
AcDb2dVertex
 10
3586.000000738229
 20
3557.500004995836
 30
-1379.051287506078
  0
VERTEX
  5
83E
330
372
100
AcDbEntity
  8
OBJECT
100
AcDbVertex
100
AcDb2dVertex
 10
3586.000000738229
 20
3523.500004995836
 30
-1379.051287506078
 42
0.2482675702532655
  0
VERTEX
  5
83F
330
372
100
AcDbEntity
  8
OBJECT
100
AcDbVertex
100
AcDb2dVertex
 10
3589.500000738228
 20
3516.885626718174
 30
-1379.051287506078
 42
0.2482675702532655
  0
SEQEND
  5
840
330
372
100
AcDbEntity
  8
OBJECT
  0
LINE
  5
373
330
28B
100
AcDbEntity
  8
OBJECT
 62
     0
100
AcDbLine
 10
3589.500000738228
 20
3564.114383273498
 30
-1379.051287506078
 11
3589.500000738228
 21
3516.885626718174
 31
-1379.051287506078
  0
LINE
  5
374
330
28B
100
AcDbEntity
  8
OBJECT
100
AcDbLine
 10
3589.500000738182
 20
3591.500004995902
 30
-1379.051287506078
 11
3589.500000738183
 21
3489.500004995903
 31
-1379.051287506078
  0
ARC
  5
375
330
28B
100
AcDbEntity
  8
OBJECT
100
AcDbCircle
 10
3593.500000738184
 20
3489.500004995903
 30
-1379.051287506078
 40
4.0
100
AcDbArc
 50
180.0
 51
270.0
  0
ARC
  5
376
330
28B
100
AcDbEntity
  8
OBJECT
100
AcDbCircle
 10
3593.500000738181
 20
3591.500004995902
 30
-1379.051287506078
 40
3.999999999999991
100
AcDbArc
 50
90.0
 51
180.0
  0
LINE
  5
377
330
28B
100
AcDbEntity
  8
OBJECT
100
AcDbLine
 10
3699.500000738181
 20
3489.500004995896
 30
-1379.051287506078
 11
3699.500000738181
 21
3591.500004995902
 31
-1379.051287506078
  0
CIRCLE
  5
378
330
28B
100
AcDbEntity
  8
OBJECT
100
AcDbCircle
 10
3674.500000738182
 20
3510.500004995893
 30
-1379.051287506078
 40
14.0
  0
ARC
  5
379
330
28B
100
AcDbEntity
  8
OBJECT
100
AcDbCircle
 10
3695.500000738181
 20
3489.500004995896
 30
-1379.051287506078
 40
3.999999999999958
100
AcDbArc
 50
270.0
 51
0.0
  0
POLYLINE
  5
37A
330
28B
100
AcDbEntity
  8
OBJECT
100
AcDb2dPolyline
 66
     1
 10
0.0
 20
0.0
 30
-1379.051287506078
  0
VERTEX
  5
841
330
37A
100
AcDbEntity
  8
OBJECT
100
AcDbVertex
100
AcDb2dVertex
 10
3653.500000738233
 20
3676.000004995836
 30
-1379.051287506078
  0
VERTEX
  5
842
330
37A
100
AcDbEntity
  8
OBJECT
100
AcDbVertex
100
AcDb2dVertex
 10
3673.000000738228
 20
3676.000004995836
 30
-1379.051287506078
  0
VERTEX
  5
843
330
37A
100
AcDbEntity
  8
OBJECT
100
AcDbVertex
100
AcDb2dVertex
 10
3673.000000738228
 20
3609.000004995836
 30
-1379.051287506078
  0
VERTEX
  5
844
330
37A
100
AcDbEntity
  8
OBJECT
100
AcDbVertex
100
AcDb2dVertex
 10
3653.500000738233
 20
3609.000004995836
 30
-1379.051287506078
  0
SEQEND
  5
845
330
37A
100
AcDbEntity
  8
OBJECT
  0
POLYLINE
  5
37B
330
28B
100
AcDbEntity
  8
OBJECT
100
AcDb2dPolyline
 66
     1
 10
0.0
 20
0.0
 30
-1379.051287506078
  0
VERTEX
  5
846
330
37B
100
AcDbEntity
  8
OBJECT
100
AcDbVertex
100
AcDb2dVertex
 10
3653.500000738233
 20
3609.000004995836
 30
-1379.051287506078
  0
VERTEX
  5
847
330
37B
100
AcDbEntity
  8
OBJECT
100
AcDbVertex
100
AcDb2dVertex
 10
3673.000000738228
 20
3609.000004995836
 30
-1379.051287506078
  0
VERTEX
  5
848
330
37B
100
AcDbEntity
  8
OBJECT
100
AcDbVertex
100
AcDb2dVertex
 10
3673.000000738228
 20
3595.500004995836
 30
-1379.051287506078
  0
SEQEND
  5
849
330
37B
100
AcDbEntity
  8
OBJECT
  0
ARC
  5
37C
330
28B
100
AcDbEntity
  8
OBJECT
100
AcDbCircle
 10
3695.50000073818
 20
3591.500004995902
 30
-1379.051287506078
 40
4.0
100
AcDbArc
 50
0.0
 51
90.0
  0
POLYLINE
  5
37D
330
28B
100
AcDbEntity
  8
OBJECT
100
AcDb2dPolyline
 66
     1
 10
0.0
 20
0.0
 30
-1379.051287506078
  0
VERTEX
  5
84A
330
37D
100
AcDbEntity
  8
OBJECT
100
AcDbVertex
100
AcDb2dVertex
 10
3653.500000738233
 20
3676.000004995836
 30
-1379.051287506078
  0
VERTEX
  5
84B
330
37D
100
AcDbEntity
  8
OBJECT
100
AcDbVertex
100
AcDb2dVertex
 10
3673.000000738228
 20
3676.000004995836
 30
-1379.051287506078
  0
VERTEX
  5
84C
330
37D
100
AcDbEntity
  8
OBJECT
100
AcDbVertex
100
AcDb2dVertex
 10
3673.000000738228
 20
3694.500004995834
 30
-1379.051287506078
  0
VERTEX
  5
84D
330
37D
100
AcDbEntity
  8
OBJECT
100
AcDbVertex
100
AcDb2dVertex
 10
3653.500000738233
 20
3694.500004995834
 30
-1379.051287506078
  0
SEQEND
  5
84E
330
37D
100
AcDbEntity
  8
OBJECT
  0
REGION
  5
37E
330
28B
100
AcDbEntity
  8
OBJECT
100
AcDbModelerGeometry
 70
     1
  1
noi gi n o          
  1
=0;& {n {m {rn {rn |
  1
9@=0;&r3(;r>++-6= {rn {l {rn {o |
  1
3*2/ {k {rn {j {o |
  1
-:9@)+r3(;r>++-6= {rn {rn {n {o {i {h |
  1
-:9@)+r3(;r>++-6= {rn {rn {rn {m {i {h |
  1
,7:33 {g {rn {rn {f {m |
  1
-:961:2:1+ {rn o o o o mqkilgmljjifooomkk o o k o o o o o o o o |
  1
):-+:'@+:2/3>+: {rn l o n g |
  1
-:9@)+r3(;r>++-6= {rn {rn {rn {j {i {h |
  1
9><: {no {rn {nn {j {rn {nm 90-(>-; ;0*=3: 0*+ |
  1
99><:r3(;r>++-6= {rn {nl {rn {f |
  1
300/ {rn {nk {nj {f |
  1
/3>1:r,*-9><: {rn liflqoooooohlgmlnk kmknqoooookffjglkk rnlhfqojnmghjoiohfm o o n n o o n V V V V |
  1
-:9@)+r3(;r>++-6= {rn {rn {no {f {i {rn |
  1
300/ {rn {ni {nh {f |
  1
<0:;8: {ng {nf {mo {rn {mn o {nn {rn |
  1
300/ {rn {rn {mm {f |
  1
<0:;8: {ml {nh {nh {rn {mk n {nk {rn |
  1
<0/>-r3(;r>++-6= {rn {rn {rn {nj |
  1
<0:;8: {mj {mi {nj {rn {mh o {nn {rn |
  1
<0:;8: {mg {nj {mf {rn {lo o {nn {rn |
  1
:;8: {ln {lm {ll {nj {lk o |
  1
<0:;8: {lj {mm {mm {rn {li n {ni {rn |
  1
<0/>-r3(;r>++-6= {rn {rn {rn {nh |
  1
:;8: {lh {lg {lg {nh {lf o |
  1
<0/>-r3(;r>++-6= {rn {rn {rn {nf |
  1
<0:;8: {ko {kn {nf {rn {km o {nn {rn |
  1
:;8: {kl {ll {kk {nf {kj o |
  1
<0/>-r3(;r>++-6= {rn {rn {rn {mo |
  1
<0:;8: {ki {mo {kh {rn {kg o {nn {rn |
  1
:;8: {kf {jo {lm {mo {jn o |
  1
:/>-r3(;r>++-6= {rn {rn {rn {mn |
  1
):-+:' {rn {mn {jm |
  1
):-+:' {rn {mn {jl |
  1
,+->687+r<*-): {rn ljfnqoooooohlgmmfi kmknqoooookffjglkk rnlhfqojnmghjoiohfm rn o o V V |
  1
<0/>-r3(;r>++-6= {rn {rn {rn {mm |
  1
:;8: {jk {jj {jj {mm {ji o |
  1
:/>-r3(;r>++-6= {rn {rn {rn {mk |
  1
):-+:' {rn {mk {jh |
  1
:336/,:r<*-): {rn linmqoooooohlgmmhg knjiqoooookffjglkk rnlhfqojnmghjoiohfm o o n nk o o n V V |
  1
<0/>-r3(;r>++-6= {rn {rn {rn {mi |
  1
<0:;8: {jg {jf {mi {rn {io o {nn {rn |
  1
:;8: {in {kk {im {mi {il o |
  1
:/>-r3(;r>++-6= {rn {rn {rn {mh |
  1
):-+:' {rn {mh {ik |
  1
:336/,:r<*-): {rn ljfnqoooooohlgmmfi kmlhqoooookffjglkk rnlhfqojnmghjoiohfm o o n rmqgmgkmhnmkhkingfg mqgmgkmhnmkhkingfg o n V V |
  1
<0/>-r3(;r>++-6= {rn {rn {rn {mf |
  1
<0:;8: {ij {mf {jf {rn {ii o {nn {rn |
  1
:;8: {ih {ig {jo {mf {if o |
  1
:/>-r3(;r>++-6= {rn {rn {rn {lo |
  1
):-+:' {rn {kg {ho |
  1
:336/,:r<*-): {rn liflqoooooohlgmlnk kmlhqoooookffjglkk rnlhfqojnmghjoiohfm o o n mqgmgkmhnmkhkinion mqgmgkmhnmkhkinion o n V V |
  1
/061+ {rn liflqoooooohlgmlnk kmknqoooookffjglkk rnlhfqojnmghjoiohfm |
  1
/061+ {rn ljfnqoooooohlgmmfi kmknqoooookffjglkk rnlhfqojnmghjoiohfm |
  1
:/>-r3(;r>++-6= {rn {rn {rn {li |
  1
):-+:' {rn {li {hn |
  1
:336/,:r<*-): {rn lihmqoooooohlgmlnk kmniqoooookffjglkk rnlhfqojnmghjoiohfm o o n rnk o o n V V |
  1
/061+ {rn limiqoooooohlgmmhg knjiqoooookffjglkk rnlhfqojnmghjoiohfm |
  1
<0/>-r3(;r>++-6= {rn {rn {rn {kn |
  1
<0:;8: {hm {kh {kn {rn {hl o {nn {rn |
  1
:;8: {hk {im {hj {kn {hi o |
  1
:/>-r3(;r>++-6= {rn {rn {rn {km |
  1
):-+:' {rn {km {hh |
  1
,+->687+r<*-): {rn ljghqoooooohlgmmfi knljqoooookffjglkk rnlhfqojnmghjoiohfm o rn o V V |
  1
/061+ {rn ljghqoooooohlgmmfi kmlhqoooookffjglkk rnlhfqojnmghjoiohfm |
  1
<0/>-r3(;r>++-6= {rn {rn {rn {kh |
  1
:;8: {hg {hf {ig {kh {go o |
  1
:/>-r3(;r>++-6= {rn {rn {rn {kg |
  1
):-+:' {rn {ii {gn |
  1
,+->687+r<*-): {rn lifhqoooooohlgmlnk kmlhqoooookffjglkk rnlhfqojnmghjoiohfm mqihkfgkknifhfmnmh:ronk n o V V |
  1
/061+ {rn lifhqoooooohlgmlnk kmlhqoooookffjglkk rnlhfqojnmghjoiohfm |
  1
/061+ {rn lijgqoooooohlgmlnk kmniqoooookffjglkk rnlhfqojnmghjoiohfm |
  1
<0/>-r3(;r>++-6= {rn {rn {rn {jf |
  1
:;8: {gm {hj {hf {jf {gl o |
  1
:/>-r3(;r>++-6= {rn {rn {rn {io |
  1
):-+:' {rn {io {gk |
  1
:336/,:r<*-): {rn ljfnqoooooohlgmmfi knljqoooookffjglkk rnlhfqojnmghjoiohfm o o n rmqgmgkmhnmkhkingkn rmqgmgkmhnmkhkingkn o n V V |
  1
/061+ {rn ljghqoooooohlgmmfi knljqoooookffjglkk rnlhfqojnmghjoiohfm |
  1
:/>-r3(;r>++-6= {rn {rn {rn {ii |
  1
):-+:' {rn {hl {gj |
  1
:336/,:r<*-): {rn liflqoooooohlgmmhg knljqoooookffjglkk rnlhfqojnmghjoiohfm o o n mqgmgkmhnmkhkingfg rmqgmgkmhnmkhkingfg o n V V |
  1
/061+ {rn lifhqoooooohlgmmhg knljqoooookffjglkk rnlhfqojnmghjoiohfm |
  1
:/>-r3(;r>++-6= {rn {rn {rn {hl |
  1
,+->687+r<*-): {rn liflqoooooohlgmmhg knlnqoooookffjglkk rnlhfqojnmghjoiohfm n kqkjglohlinilmokoj:ronj o V V |
  1
/061+ {rn ljfnqoooooohlgmmfi knlnqoooookffjglkk rnlhfqojnmghjoiohfm |
  1
/061+ {rn liflqoooooohlgmmhg knlnqoooookffjglkk rnlhfqojnmghjoiohfm |
  0
POLYLINE
  5
37F
330
28B
100
AcDbEntity
  8
OBJECT
100
AcDb2dPolyline
 66
     1
 10
0.0
 20
0.0
 30
-1379.051287506078
  0
VERTEX
  5
84F
330
37F
100
AcDbEntity
  8
OBJECT
100
AcDbVertex
100
AcDb2dVertex
 10
3653.500000738233
 20
4024.000004995833
 30
-1379.051287506078
  0
VERTEX
  5
850
330
37F
100
AcDbEntity
  8
OBJECT
100
AcDbVertex
100
AcDb2dVertex
 10
3673.000000738228
 20
4024.000004995833
 30
-1379.051287506078
  0
VERTEX
  5
851
330
37F
100
AcDbEntity
  8
OBJECT
100
AcDbVertex
100
AcDb2dVertex
 10
3673.000000738228
 20
3957.000004995833
 30
-1379.051287506078
  0
VERTEX
  5
852
330
37F
100
AcDbEntity
  8
OBJECT
100
AcDbVertex
100
AcDb2dVertex
 10
3653.500000738233
 20
3957.000004995833
 30
-1379.051287506078
  0
SEQEND
  5
853
330
37F
100
AcDbEntity
  8
OBJECT
  0
POLYLINE
  5
380
330
28B
100
AcDbEntity
  8
OBJECT
100
AcDb2dPolyline
 66
     1
 10
0.0
 20
0.0
 30
-1379.051287506078
  0
VERTEX
  5
854
330
380
100
AcDbEntity
  8
OBJECT
100
AcDbVertex
100
AcDb2dVertex
 10
3653.500000738233
 20
3850.000004995834
 30
-1379.051287506078
  0
VERTEX
  5
855
330
380
100
AcDbEntity
  8
OBJECT
100
AcDbVertex
100
AcDb2dVertex
 10
3673.000000738228
 20
3850.000004995834
 30
-1379.051287506078
  0
VERTEX
  5
856
330
380
100
AcDbEntity
  8
OBJECT
100
AcDbVertex
100
AcDb2dVertex
 10
3673.000000738228
 20
3868.500004995832
 30
-1379.051287506078
  0
VERTEX
  5
857
330
380
100
AcDbEntity
  8
OBJECT
100
AcDbVertex
100
AcDb2dVertex
 10
3653.500000738233
 20
3868.500004995832
 30
-1379.051287506078
  0
SEQEND
  5
858
330
380
100
AcDbEntity
  8
OBJECT
  0
POLYLINE
  5
381
330
28B
100
AcDbEntity
  8
OBJECT
100
AcDb2dPolyline
 66
     1
 10
0.0
 20
0.0
 30
-1379.051287506078
  0
VERTEX
  5
859
330
381
100
AcDbEntity
  8
OBJECT
100
AcDbVertex
100
AcDb2dVertex
 10
3653.500000738233
 20
3764.500004995836
 30
-1379.051287506078
  0
VERTEX
  5
85A
330
381
100
AcDbEntity
  8
OBJECT
100
AcDbVertex
100
AcDb2dVertex
 10
3673.000000738228
 20
3764.500004995836
 30
-1379.051287506078
  0
VERTEX
  5
85B
330
381
100
AcDbEntity
  8
OBJECT
100
AcDbVertex
100
AcDb2dVertex
 10
3673.000000738228
 20
3783.000004995834
 30
-1379.051287506078
  0
VERTEX
  5
85C
330
381
100
AcDbEntity
  8
OBJECT
100
AcDbVertex
100
AcDb2dVertex
 10
3653.500000738233
 20
3783.000004995834
 30
-1379.051287506078
  0
SEQEND
  5
85D
330
381
100
AcDbEntity
  8
OBJECT
  0
POLYLINE
  5
382
330
28B
100
AcDbEntity
  8
OBJECT
100
AcDb2dPolyline
 66
     1
 10
0.0
 20
0.0
 30
-1379.051287506078
  0
VERTEX
  5
85E
330
382
100
AcDbEntity
  8
OBJECT
100
AcDbVertex
100
AcDb2dVertex
 10
3653.500000738233
 20
3848.500004995834
 30
-1379.051287506078
  0
VERTEX
  5
85F
330
382
100
AcDbEntity
  8
OBJECT
100
AcDbVertex
100
AcDb2dVertex
 10
3673.000000738228
 20
3848.500004995834
 30
-1379.051287506078
  0
VERTEX
  5
860
330
382
100
AcDbEntity
  8
OBJECT
100
AcDbVertex
100
AcDb2dVertex
 10
3673.000000738228
 20
3781.500004995834
 30
-1379.051287506078
  0
VERTEX
  5
861
330
382
100
AcDbEntity
  8
OBJECT
100
AcDbVertex
100
AcDb2dVertex
 10
3653.500000738233
 20
3781.500004995834
 30
-1379.051287506078
  0
SEQEND
  5
862
330
382
100
AcDbEntity
  8
OBJECT
  0
POLYLINE
  5
383
330
28B
100
AcDbEntity
  8
OBJECT
100
AcDb2dPolyline
 66
     1
 10
0.0
 20
0.0
 30
-1379.051287506078
  0
VERTEX
  5
863
330
383
100
AcDbEntity
  8
OBJECT
100
AcDbVertex
100
AcDb2dVertex
 10
3653.500000738233
 20
3937.000004995834
 30
-1379.051287506078
  0
VERTEX
  5
864
330
383
100
AcDbEntity
  8
OBJECT
100
AcDbVertex
100
AcDb2dVertex
 10
3673.000000738228
 20
3937.000004995834
 30
-1379.051287506078
  0
VERTEX
  5
865
330
383
100
AcDbEntity
  8
OBJECT
100
AcDbVertex
100
AcDb2dVertex
 10
3673.000000738228
 20
3955.500004995832
 30
-1379.051287506078
  0
VERTEX
  5
866
330
383
100
AcDbEntity
  8
OBJECT
100
AcDbVertex
100
AcDb2dVertex
 10
3653.500000738233
 20
3955.500004995832
 30
-1379.051287506078
  0
SEQEND
  5
867
330
383
100
AcDbEntity
  8
OBJECT
  0
POLYLINE
  5
384
330
28B
100
AcDbEntity
  8
OBJECT
100
AcDb2dPolyline
 66
     1
 10
0.0
 20
0.0
 30
-1379.051287506078
  0
VERTEX
  5
868
330
384
100
AcDbEntity
  8
OBJECT
100
AcDbVertex
100
AcDb2dVertex
 10
3653.500000738233
 20
3937.000004995834
 30
-1379.051287506078
  0
VERTEX
  5
869
330
384
100
AcDbEntity
  8
OBJECT
100
AcDbVertex
100
AcDb2dVertex
 10
3673.000000738228
 20
3937.000004995834
 30
-1379.051287506078
  0
VERTEX
  5
86A
330
384
100
AcDbEntity
  8
OBJECT
100
AcDbVertex
100
AcDb2dVertex
 10
3673.000000738228
 20
3870.000004995834
 30
-1379.051287506078
  0
VERTEX
  5
86B
330
384
100
AcDbEntity
  8
OBJECT
100
AcDbVertex
100
AcDb2dVertex
 10
3653.500000738233
 20
3870.000004995834
 30
-1379.051287506078
  0
SEQEND
  5
86C
330
384
100
AcDbEntity
  8
OBJECT
  0
POLYLINE
  5
385
330
28B
100
AcDbEntity
  8
OBJECT
100
AcDb2dPolyline
 66
     1
 10
0.0
 20
0.0
 30
-1379.051287506079
  0
VERTEX
  5
86D
330
385
100
AcDbEntity
  8
OBJECT
100
AcDbVertex
100
AcDb2dVertex
 10
3653.500000738233
 20
4111.000004995833
 30
-1379.051287506079
  0
VERTEX
  5
86E
330
385
100
AcDbEntity
  8
OBJECT
100
AcDbVertex
100
AcDb2dVertex
 10
3673.000000738228
 20
4111.000004995833
 30
-1379.051287506079
  0
VERTEX
  5
86F
330
385
100
AcDbEntity
  8
OBJECT
100
AcDbVertex
100
AcDb2dVertex
 10
3673.000000738228
 20
4044.000004995834
 30
-1379.051287506079
  0
VERTEX
  5
870
330
385
100
AcDbEntity
  8
OBJECT
100
AcDbVertex
100
AcDb2dVertex
 10
3653.500000738233
 20
4044.000004995834
 30
-1379.051287506079
  0
SEQEND
  5
871
330
385
100
AcDbEntity
  8
OBJECT
  0
POLYLINE
  5
386
330
28B
100
AcDbEntity
  8
OBJECT
100
AcDb2dPolyline
 66
     1
 10
0.0
 20
0.0
 30
-1379.051287506079
  0
VERTEX
  5
872
330
386
100
AcDbEntity
  8
OBJECT
100
AcDbVertex
100
AcDb2dVertex
 10
3653.500000738233
 20
4024.000004995833
 30
-1379.051287506079
  0
VERTEX
  5
873
330
386
100
AcDbEntity
  8
OBJECT
100
AcDbVertex
100
AcDb2dVertex
 10
3673.000000738228
 20
4024.000004995833
 30
-1379.051287506079
  0
VERTEX
  5
874
330
386
100
AcDbEntity
  8
OBJECT
100
AcDbVertex
100
AcDb2dVertex
 10
3673.000000738228
 20
4042.500004995832
 30
-1379.051287506079
  0
VERTEX
  5
875
330
386
100
AcDbEntity
  8
OBJECT
100
AcDbVertex
100
AcDb2dVertex
 10
3653.500000738233
 20
4042.500004995832
 30
-1379.051287506079
  0
SEQEND
  5
876
330
386
100
AcDbEntity
  8
OBJECT
  0
ENDBLK
  5
28D
330
28B
100
AcDbEntity
  8
0
100
AcDbBlockEnd
  0
BLOCK
  5
4CB
330
4CA
100
AcDbEntity
  8
0
100
AcDbBlockBegin
  2
FDKC2
 70
     0
 10
0.0
 20
0.0
 30
0.0
  3
FDKC2
  1

  0
POLYLINE
  5
4CD
330
4CA
100
AcDbEntity
  8
SAFETY
  6
DASHED
 48
5.0
100
AcDb2dPolyline
 66
     1
 10
0.0
 20
0.0
 30
-1379.051287506078
 70
     1
  0
VERTEX
  5
878
330
4CD
100
AcDbEntity
  8
SAFETY
  6
DASHED
 48
5.0
100
AcDbVertex
100
AcDb2dVertex
 10
1500.000000738229
 20
0.00000499583075
 30
-1379.051287506078
  0
VERTEX
  5
879
330
4CD
100
AcDbEntity
  8
SAFETY
  6
DASHED
 48
5.0
100
AcDbVertex
100
AcDb2dVertex
 10
2269.000000738228
 20
0.00000499583075
 30
-1379.051287506078
 42
0.4118663669756752
  0
VERTEX
  5
87A
330
4CD
100
AcDbEntity
  8
SAFETY
  6
DASHED
 48
5.0
100
AcDbVertex
100
AcDb2dVertex
 10
3769.000000738229
 20
1500.00000499583
 30
-1379.051287506078
  0
VERTEX
  5
87B
330
4CD
100
AcDbEntity
  8
SAFETY
  6
DASHED
 48
5.0
100
AcDbVertex
100
AcDb2dVertex
 10
3769.000000738228
 20
2001.926575553873
 30
-1379.051287506078
 42
0.1585327032492299
  0
VERTEX
  5
87C
330
4CD
100
AcDbEntity
  8
SAFETY
  6
DASHED
 48
5.0
100
AcDbVertex
100
AcDb2dVertex
 10
4635.705913258141
 20
2333.250004995835
 30
-1379.051287506078
  0
VERTEX
  5
87D
330
4CD
100
AcDbEntity
  8
SAFETY
  6
DASHED
 48
5.0
100
AcDbVertex
100
AcDb2dVertex
 10
4913.000000738225
 20
2333.250004995834
 30
-1379.051287506078
 42
0.4200840252084032
  0
VERTEX
  5
87E
330
4CD
100
AcDbEntity
  8
SAFETY
  6
DASHED
 48
5.0
100
AcDbVertex
100
AcDb2dVertex
 10
6412.699970732226
 20
3863.250004995835
 30
-1379.051287506078
 42
0.4200840252084032
  0
VERTEX
  5
87F
330
4CD
100
AcDbEntity
  8
SAFETY
  6
DASHED
 48
5.0
100
AcDbVertex
100
AcDb2dVertex
 10
4913.000000738225
 20
5393.250004995836
 30
-1379.051287506078
  0
VERTEX
  5
880
330
4CD
100
AcDbEntity
  8
SAFETY
  6
DASHED
 48
5.0
100
AcDbVertex
100
AcDb2dVertex
 10
4635.086747009506
 20
5393.250004995836
 30
-1379.051287506078
 42
0.1714135855173436
  0
VERTEX
  5
881
330
4CD
100
AcDbEntity
  8
SAFETY
  6
DASHED
 48
5.0
100
AcDbVertex
100
AcDb2dVertex
 10
3693.000000738229
 20
5726.000004995836
 30
-1379.051287506078
  0
VERTEX
  5
882
330
4CD
100
AcDbEntity
  8
SAFETY
  6
DASHED
 48
5.0
100
AcDbVertex
100
AcDb2dVertex
 10
1500.000000738229
 20
5726.000004995836
 30
-1379.051287506078
 42
0.4142135623730951
  0
VERTEX
  5
883
330
4CD
100
AcDbEntity
  8
SAFETY
  6
DASHED
 48
5.0
100
AcDbVertex
100
AcDb2dVertex
 10
0.0000007382295735
 20
4226.000004995836
 30
-1379.051287506078
  0
VERTEX
  5
884
330
4CD
100
AcDbEntity
  8
SAFETY
  6
DASHED
 48
5.0
100
AcDbVertex
100
AcDb2dVertex
 10
0.0000007382295735
 20
1500.00000499583
 30
-1379.051287506078
 42
0.4142135623730951
  0
SEQEND
  5
885
330
4CD
100
AcDbEntity
  8
SAFETY
  6
DASHED
 48
5.0
  0
POLYLINE
  5
4CE
330
4CA
100
AcDbEntity
  8
OBJECT
100
AcDb2dPolyline
 66
     1
 10
0.0
 20
0.0
 30
-1379.051287506078
 70
     1
  0
VERTEX
  5
886
330
4CE
100
AcDbEntity
  8
OBJECT
100
AcDbVertex
100
AcDb2dVertex
 10
1616.000000738229
 20
2891.500004995834
 30
-1379.051287506078
  0
VERTEX
  5
887
330
4CE
100
AcDbEntity
  8
OBJECT
100
AcDbVertex
100
AcDb2dVertex
 10
1826.000000738229
 20
2891.500004995834
 30
-1379.051287506078
  0
VERTEX
  5
888
330
4CE
100
AcDbEntity
  8
OBJECT
100
AcDbVertex
100
AcDb2dVertex
 10
1826.000000738229
 20
2857.500004995834
 30
-1379.051287506078
  0
VERTEX
  5
889
330
4CE
100
AcDbEntity
  8
OBJECT
100
AcDbVertex
100
AcDb2dVertex
 10
1616.000000738229
 20
2857.500004995834
 30
-1379.051287506078
  0
SEQEND
  5
88A
330
4CE
100
AcDbEntity
  8
OBJECT
  0
POLYLINE
  5
4CF
330
4CA
100
AcDbEntity
  8
OBJECT
100
AcDb2dPolyline
 66
     1
 10
0.0
 20
0.0
 30
-1379.051287506078
  0
VERTEX
  5
88B
330
4CF
100
AcDbEntity
  8
OBJECT
100
AcDbVertex
100
AcDb2dVertex
 10
1606.000000738229
 20
3589.000004995833
 30
-1379.051287506078
  0
VERTEX
  5
88C
330
4CF
100
AcDbEntity
  8
OBJECT
100
AcDbVertex
100
AcDb2dVertex
 10
1606.000000738229
 20
1433.500004995833
 30
-1379.051287506078
  0
VERTEX
  5
88D
330
4CF
100
AcDbEntity
  8
OBJECT
100
AcDbVertex
100
AcDb2dVertex
 10
1581.000000738229
 20
1433.500004995833
 30
-1379.051287506078
  0
VERTEX
  5
88E
330
4CF
100
AcDbEntity
  8
OBJECT
100
AcDbVertex
100
AcDb2dVertex
 10
1581.000000738229
 20
1485.500004995835
 30
-1379.051287506078
  0
SEQEND
  5
88F
330
4CF
100
AcDbEntity
  8
OBJECT
  0
POLYLINE
  5
4D0
330
4CA
100
AcDbEntity
  8
OBJECT
100
AcDb2dPolyline
 66
     1
 10
0.0
 20
0.0
 30
-1379.051287506078
  0
VERTEX
  5
890
330
4D0
100
AcDbEntity
  8
OBJECT
100
AcDbVertex
100
AcDb2dVertex
 10
1606.000000738229
 20
2899.500004995834
 30
-1379.051287506078
  0
VERTEX
  5
891
330
4D0
100
AcDbEntity
  8
OBJECT
100
AcDbVertex
100
AcDb2dVertex
 10
1608.000000738229
 20
2899.500004995834
 30
-1379.051287506078
 42
-0.4142135623730952
  0
VERTEX
  5
892
330
4D0
100
AcDbEntity
  8
OBJECT
100
AcDbVertex
100
AcDb2dVertex
 10
1616.000000738229
 20
2891.500004995834
 30
-1379.051287506078
  0
VERTEX
  5
893
330
4D0
100
AcDbEntity
  8
OBJECT
100
AcDbVertex
100
AcDb2dVertex
 10
1616.000000738229
 20
2857.500004995834
 30
-1379.051287506078
 42
-0.4142135623730952
  0
VERTEX
  5
894
330
4D0
100
AcDbEntity
  8
OBJECT
100
AcDbVertex
100
AcDb2dVertex
 10
1608.000000738229
 20
2849.500004995833
 30
-1379.051287506078
  0
VERTEX
  5
895
330
4D0
100
AcDbEntity
  8
OBJECT
100
AcDbVertex
100
AcDb2dVertex
 10
1606.000000738229
 20
2849.500004995833
 30
-1379.051287506078
  0
SEQEND
  5
896
330
4D0
100
AcDbEntity
  8
OBJECT
  0
POLYLINE
  5
4D1
330
4CA
100
AcDbEntity
  8
OBJECT
100
AcDb2dPolyline
 66
     1
 10
0.0
 20
0.0
 30
-1379.051287506078
  0
VERTEX
  5
897
330
4D1
100
AcDbEntity
  8
OBJECT
100
AcDbVertex
100
AcDb2dVertex
 10
1581.000000738229
 20
2595.500004995836
 30
-1379.051287506078
  0
VERTEX
  5
898
330
4D1
100
AcDbEntity
  8
OBJECT
100
AcDbVertex
100
AcDb2dVertex
 10
1581.000000738229
 20
3485.500004995836
 30
-1379.051287506078
  0
SEQEND
  5
899
330
4D1
100
AcDbEntity
  8
OBJECT
  0
LINE
  5
4D2
330
4CA
100
AcDbEntity
  8
OBJECT
100
AcDbLine
 10
1515.500000738229
 20
2599.000004995834
 30
-1379.051287506078
 11
1515.500000738229
 21
3482.000004995834
 31
-1379.051287506078
  0
LINE
  5
4D3
330
4CA
100
AcDbEntity
  8
OBJECT
100
AcDbLine
 10
1549.500000738229
 20
3482.000004995834
 30
-1379.051287506078
 11
1549.500000738229
 21
2599.000004995834
 31
-1379.051287506078
  0
POLYLINE
  5
4D4
330
4CA
100
AcDbEntity
  8
OBJECT
100
AcDb2dPolyline
 66
     1
 10
0.0
 20
0.0
 30
-1379.051287506078
  0
VERTEX
  5
89A
330
4D4
100
AcDbEntity
  8
OBJECT
100
AcDbVertex
100
AcDb2dVertex
 10
2188.000000738229
 20
1485.500004995835
 30
-1379.051287506078
  0
VERTEX
  5
89B
330
4D4
100
AcDbEntity
  8
OBJECT
100
AcDbVertex
100
AcDb2dVertex
 10
2188.000000738229
 20
1433.500004995833
 30
-1379.051287506078
  0
VERTEX
  5
89C
330
4D4
100
AcDbEntity
  8
OBJECT
100
AcDbVertex
100
AcDb2dVertex
 10
2163.000000738229
 20
1433.500004995833
 30
-1379.051287506078
  0
VERTEX
  5
89D
330
4D4
100
AcDbEntity
  8
OBJECT
100
AcDbVertex
100
AcDb2dVertex
 10
2163.000000738229
 20
3589.000004995833
 30
-1379.051287506078
  0
SEQEND
  5
89E
330
4D4
100
AcDbEntity
  8
OBJECT
  0
POLYLINE
  5
4D5
330
4CA
100
AcDbEntity
  8
OBJECT
100
AcDb2dPolyline
 66
     1
 10
0.0
 20
0.0
 30
-1379.051287506078
  0
VERTEX
  5
89F
330
4D5
100
AcDbEntity
  8
OBJECT
100
AcDbVertex
100
AcDb2dVertex
 10
1933.000000738229
 20
3589.000004995833
 30
-1379.051287506078
  0
VERTEX
  5
8A0
330
4D5
100
AcDbEntity
  8
OBJECT
100
AcDbVertex
100
AcDb2dVertex
 10
1933.000000738229
 20
1455.500004995833
 30
-1379.051287506078
  0
VERTEX
  5
8A1
330
4D5
100
AcDbEntity
  8
OBJECT
100
AcDbVertex
100
AcDb2dVertex
 10
1836.000000738229
 20
1455.500004995833
 30
-1379.051287506078
  0
VERTEX
  5
8A2
330
4D5
100
AcDbEntity
  8
OBJECT
100
AcDbVertex
100
AcDb2dVertex
 10
1836.000000738229
 20
3589.000004995833
 30
-1379.051287506078
  0
SEQEND
  5
8A3
330
4D5
100
AcDbEntity
  8
OBJECT
  0
POLYLINE
  5
4D6
330
4CA
100
AcDbEntity
  8
OBJECT
100
AcDb2dPolyline
 66
     1
 10
0.0
 20
0.0
 30
-1379.051287506078
  0
VERTEX
  5
8A4
330
4D6
100
AcDbEntity
  8
OBJECT
100
AcDbVertex
100
AcDb2dVertex
 10
2163.000000738229
 20
2899.500004995834
 30
-1379.051287506078
  0
VERTEX
  5
8A5
330
4D6
100
AcDbEntity
  8
OBJECT
100
AcDbVertex
100
AcDb2dVertex
 10
2161.000000738229
 20
2899.500004995834
 30
-1379.051287506078
 42
0.4142135623730952
  0
VERTEX
  5
8A6
330
4D6
100
AcDbEntity
  8
OBJECT
100
AcDbVertex
100
AcDb2dVertex
 10
2153.000000738229
 20
2891.500004995834
 30
-1379.051287506078
  0
VERTEX
  5
8A7
330
4D6
100
AcDbEntity
  8
OBJECT
100
AcDbVertex
100
AcDb2dVertex
 10
2153.000000738229
 20
2857.500004995834
 30
-1379.051287506078
 42
0.4142135623730952
  0
VERTEX
  5
8A8
330
4D6
100
AcDbEntity
  8
OBJECT
100
AcDbVertex
100
AcDb2dVertex
 10
2161.000000738229
 20
2849.500004995833
 30
-1379.051287506078
  0
VERTEX
  5
8A9
330
4D6
100
AcDbEntity
  8
OBJECT
100
AcDbVertex
100
AcDb2dVertex
 10
2163.000000738229
 20
2849.500004995833
 30
-1379.051287506078
  0
SEQEND
  5
8AA
330
4D6
100
AcDbEntity
  8
OBJECT
  0
POLYLINE
  5
4D7
330
4CA
100
AcDbEntity
  8
OBJECT
100
AcDb2dPolyline
 66
     1
 10
0.0
 20
0.0
 30
-1379.051287506078
  0
VERTEX
  5
8AB
330
4D7
100
AcDbEntity
  8
OBJECT
100
AcDbVertex
100
AcDb2dVertex
 10
1933.000000738229
 20
2899.500004995834
 30
-1379.051287506078
  0
VERTEX
  5
8AC
330
4D7
100
AcDbEntity
  8
OBJECT
100
AcDbVertex
100
AcDb2dVertex
 10
1935.000000738229
 20
2899.500004995834
 30
-1379.051287506078
 42
-0.4142135623730952
  0
VERTEX
  5
8AD
330
4D7
100
AcDbEntity
  8
OBJECT
100
AcDbVertex
100
AcDb2dVertex
 10
1943.000000738229
 20
2891.500004995834
 30
-1379.051287506078
  0
VERTEX
  5
8AE
330
4D7
100
AcDbEntity
  8
OBJECT
100
AcDbVertex
100
AcDb2dVertex
 10
1943.000000738229
 20
2857.500004995834
 30
-1379.051287506078
 42
-0.4142135623730952
  0
VERTEX
  5
8AF
330
4D7
100
AcDbEntity
  8
OBJECT
100
AcDbVertex
100
AcDb2dVertex
 10
1935.000000738229
 20
2849.500004995833
 30
-1379.051287506078
  0
VERTEX
  5
8B0
330
4D7
100
AcDbEntity
  8
OBJECT
100
AcDbVertex
100
AcDb2dVertex
 10
1933.000000738229
 20
2849.500004995833
 30
-1379.051287506078
  0
SEQEND
  5
8B1
330
4D7
100
AcDbEntity
  8
OBJECT
  0
POLYLINE
  5
4D8
330
4CA
100
AcDbEntity
  8
OBJECT
100
AcDb2dPolyline
 66
     1
 10
0.0
 20
0.0
 30
-1379.051287506078
  0
VERTEX
  5
8B2
330
4D8
100
AcDbEntity
  8
OBJECT
100
AcDbVertex
100
AcDb2dVertex
 10
1836.000000738229
 20
2899.500004995834
 30
-1379.051287506078
  0
VERTEX
  5
8B3
330
4D8
100
AcDbEntity
  8
OBJECT
100
AcDbVertex
100
AcDb2dVertex
 10
1834.000000738229
 20
2899.500004995834
 30
-1379.051287506078
 42
0.4142135623730952
  0
VERTEX
  5
8B4
330
4D8
100
AcDbEntity
  8
OBJECT
100
AcDbVertex
100
AcDb2dVertex
 10
1826.000000738229
 20
2891.500004995834
 30
-1379.051287506078
  0
VERTEX
  5
8B5
330
4D8
100
AcDbEntity
  8
OBJECT
100
AcDbVertex
100
AcDb2dVertex
 10
1826.000000738229
 20
2857.500004995834
 30
-1379.051287506078
 42
0.4142135623730952
  0
VERTEX
  5
8B6
330
4D8
100
AcDbEntity
  8
OBJECT
100
AcDbVertex
100
AcDb2dVertex
 10
1834.000000738229
 20
2849.500004995833
 30
-1379.051287506078
  0
VERTEX
  5
8B7
330
4D8
100
AcDbEntity
  8
OBJECT
100
AcDbVertex
100
AcDb2dVertex
 10
1836.000000738229
 20
2849.500004995833
 30
-1379.051287506078
  0
SEQEND
  5
8B8
330
4D8
100
AcDbEntity
  8
OBJECT
  0
POLYLINE
  5
4D9
330
4CA
100
AcDbEntity
  8
OBJECT
100
AcDb2dPolyline
 66
     1
 10
0.0
 20
0.0
 30
-1379.051287506078
 70
     1
  0
VERTEX
  5
8B9
330
4D9
100
AcDbEntity
  8
OBJECT
100
AcDbVertex
100
AcDb2dVertex
 10
1943.000000738229
 20
2891.500004995834
 30
-1379.051287506078
  0
VERTEX
  5
8BA
330
4D9
100
AcDbEntity
  8
OBJECT
100
AcDbVertex
100
AcDb2dVertex
 10
2153.000000738229
 20
2891.500004995834
 30
-1379.051287506078
  0
VERTEX
  5
8BB
330
4D9
100
AcDbEntity
  8
OBJECT
100
AcDbVertex
100
AcDb2dVertex
 10
2153.000000738229
 20
2857.500004995834
 30
-1379.051287506078
  0
VERTEX
  5
8BC
330
4D9
100
AcDbEntity
  8
OBJECT
100
AcDbVertex
100
AcDb2dVertex
 10
1943.000000738229
 20
2857.500004995834
 30
-1379.051287506078
  0
SEQEND
  5
8BD
330
4D9
100
AcDbEntity
  8
OBJECT
  0
POLYLINE
  5
4DA
330
4CA
100
AcDbEntity
  8
OBJECT
100
AcDb2dPolyline
 66
     1
 10
0.0
 20
0.0
 30
-1379.051287506078
  0
VERTEX
  5
8BE
330
4DA
100
AcDbEntity
  8
OBJECT
100
AcDbVertex
100
AcDb2dVertex
 10
2188.000000738229
 20
3485.500004995836
 30
-1379.051287506078
  0
VERTEX
  5
8BF
330
4DA
100
AcDbEntity
  8
OBJECT
100
AcDbVertex
100
AcDb2dVertex
 10
2188.000000738229
 20
2595.500004995836
 30
-1379.051287506078
  0
SEQEND
  5
8C0
330
4DA
100
AcDbEntity
  8
OBJECT
  0
LINE
  5
4DB
330
4CA
100
AcDbEntity
  8
OBJECT
100
AcDbLine
 10
2219.500000738229
 20
2599.000004995834
 30
-1379.051287506078
 11
2219.500000738229
 21
3482.000004995834
 31
-1379.051287506078
  0
LINE
  5
4DC
330
4CA
100
AcDbEntity
  8
OBJECT
100
AcDbLine
 10
2253.500000738229
 20
3482.000004995834
 30
-1379.051287506078
 11
2253.500000738229
 21
2599.000004995834
 31
-1379.051287506078
  0
POLYLINE
  5
4DD
330
4CA
100
AcDbEntity
  8
OBJECT
100
AcDb2dPolyline
 66
     1
 10
0.0
 20
0.0
 30
-1379.051287506078
  0
VERTEX
  5
8C1
330
4DD
100
AcDbEntity
  8
OBJECT
100
AcDbVertex
100
AcDb2dVertex
 10
2163.000000738229
 20
1897.500004995833
 30
-1379.051287506078
  0
VERTEX
  5
8C2
330
4DD
100
AcDbEntity
  8
OBJECT
100
AcDbVertex
100
AcDb2dVertex
 10
2161.000000738229
 20
1897.500004995833
 30
-1379.051287506078
 42
0.4142135623730952
  0
VERTEX
  5
8C3
330
4DD
100
AcDbEntity
  8
OBJECT
100
AcDbVertex
100
AcDb2dVertex
 10
2153.000000738229
 20
1889.500004995834
 30
-1379.051287506078
  0
VERTEX
  5
8C4
330
4DD
100
AcDbEntity
  8
OBJECT
100
AcDbVertex
100
AcDb2dVertex
 10
2153.000000738229
 20
1855.500004995834
 30
-1379.051287506078
 42
0.4142135623730952
  0
VERTEX
  5
8C5
330
4DD
100
AcDbEntity
  8
OBJECT
100
AcDbVertex
100
AcDb2dVertex
 10
2161.000000738229
 20
1847.500004995834
 30
-1379.051287506078
  0
VERTEX
  5
8C6
330
4DD
100
AcDbEntity
  8
OBJECT
100
AcDbVertex
100
AcDb2dVertex
 10
2163.000000738229
 20
1847.500004995834
 30
-1379.051287506078
  0
SEQEND
  5
8C7
330
4DD
100
AcDbEntity
  8
OBJECT
  0
POLYLINE
  5
4DE
330
4CA
100
AcDbEntity
  8
OBJECT
100
AcDb2dPolyline
 66
     1
 10
0.0
 20
0.0
 30
-1379.051287506078
  0
VERTEX
  5
8C8
330
4DE
100
AcDbEntity
  8
OBJECT
100
AcDbVertex
100
AcDb2dVertex
 10
1933.000000738229
 20
1897.500004995833
 30
-1379.051287506078
  0
VERTEX
  5
8C9
330
4DE
100
AcDbEntity
  8
OBJECT
100
AcDbVertex
100
AcDb2dVertex
 10
1935.000000738229
 20
1897.500004995833
 30
-1379.051287506078
 42
-0.4142135623730952
  0
VERTEX
  5
8CA
330
4DE
100
AcDbEntity
  8
OBJECT
100
AcDbVertex
100
AcDb2dVertex
 10
1943.000000738229
 20
1889.500004995834
 30
-1379.051287506078
  0
VERTEX
  5
8CB
330
4DE
100
AcDbEntity
  8
OBJECT
100
AcDbVertex
100
AcDb2dVertex
 10
1943.000000738229
 20
1855.500004995834
 30
-1379.051287506078
 42
-0.4142135623730952
  0
VERTEX
  5
8CC
330
4DE
100
AcDbEntity
  8
OBJECT
100
AcDbVertex
100
AcDb2dVertex
 10
1935.000000738229
 20
1847.500004995834
 30
-1379.051287506078
  0
VERTEX
  5
8CD
330
4DE
100
AcDbEntity
  8
OBJECT
100
AcDbVertex
100
AcDb2dVertex
 10
1933.000000738229
 20
1847.500004995834
 30
-1379.051287506078
  0
SEQEND
  5
8CE
330
4DE
100
AcDbEntity
  8
OBJECT
  0
POLYLINE
  5
4DF
330
4CA
100
AcDbEntity
  8
OBJECT
100
AcDb2dPolyline
 66
     1
 10
0.0
 20
0.0
 30
-1379.051287506078
  0
VERTEX
  5
8CF
330
4DF
100
AcDbEntity
  8
OBJECT
100
AcDbVertex
100
AcDb2dVertex
 10
1836.000000738229
 20
1897.500004995833
 30
-1379.051287506078
  0
VERTEX
  5
8D0
330
4DF
100
AcDbEntity
  8
OBJECT
100
AcDbVertex
100
AcDb2dVertex
 10
1834.000000738229
 20
1897.500004995833
 30
-1379.051287506078
 42
0.4142135623730952
  0
VERTEX
  5
8D1
330
4DF
100
AcDbEntity
  8
OBJECT
100
AcDbVertex
100
AcDb2dVertex
 10
1826.000000738229
 20
1889.500004995834
 30
-1379.051287506078
  0
VERTEX
  5
8D2
330
4DF
100
AcDbEntity
  8
OBJECT
100
AcDbVertex
100
AcDb2dVertex
 10
1826.000000738229
 20
1855.500004995834
 30
-1379.051287506078
 42
0.4142135623730952
  0
VERTEX
  5
8D3
330
4DF
100
AcDbEntity
  8
OBJECT
100
AcDbVertex
100
AcDb2dVertex
 10
1834.000000738229
 20
1847.500004995834
 30
-1379.051287506078
  0
VERTEX
  5
8D4
330
4DF
100
AcDbEntity
  8
OBJECT
100
AcDbVertex
100
AcDb2dVertex
 10
1836.000000738229
 20
1847.500004995834
 30
-1379.051287506078
  0
SEQEND
  5
8D5
330
4DF
100
AcDbEntity
  8
OBJECT
  0
POLYLINE
  5
4E0
330
4CA
100
AcDbEntity
  8
OBJECT
100
AcDb2dPolyline
 66
     1
 10
0.0
 20
0.0
 30
-1379.051287506078
 70
     1
  0
VERTEX
  5
8D6
330
4E0
100
AcDbEntity
  8
OBJECT
100
AcDbVertex
100
AcDb2dVertex
 10
1943.000000738229
 20
1889.500004995834
 30
-1379.051287506078
  0
VERTEX
  5
8D7
330
4E0
100
AcDbEntity
  8
OBJECT
100
AcDbVertex
100
AcDb2dVertex
 10
2153.000000738229
 20
1889.500004995834
 30
-1379.051287506078
  0
VERTEX
  5
8D8
330
4E0
100
AcDbEntity
  8
OBJECT
100
AcDbVertex
100
AcDb2dVertex
 10
2153.000000738229
 20
1855.500004995834
 30
-1379.051287506078
  0
VERTEX
  5
8D9
330
4E0
100
AcDbEntity
  8
OBJECT
100
AcDbVertex
100
AcDb2dVertex
 10
1943.000000738229
 20
1855.500004995834
 30
-1379.051287506078
  0
SEQEND
  5
8DA
330
4E0
100
AcDbEntity
  8
OBJECT
  0
POLYLINE
  5
4E1
330
4CA
100
AcDbEntity
  8
OBJECT
100
AcDb2dPolyline
 66
     1
 10
0.0
 20
0.0
 30
-1379.051287506078
  0
VERTEX
  5
8DB
330
4E1
100
AcDbEntity
  8
OBJECT
100
AcDbVertex
100
AcDb2dVertex
 10
2188.000000738229
 20
2485.500004995836
 30
-1379.051287506078
  0
VERTEX
  5
8DC
330
4E1
100
AcDbEntity
  8
OBJECT
100
AcDbVertex
100
AcDb2dVertex
 10
2188.000000738229
 20
1595.500004995836
 30
-1379.051287506078
  0
SEQEND
  5
8DD
330
4E1
100
AcDbEntity
  8
OBJECT
  0
LINE
  5
4E2
330
4CA
100
AcDbEntity
  8
OBJECT
100
AcDbLine
 10
2219.500000738229
 20
1599.000004995834
 30
-1379.051287506078
 11
2219.500000738229
 21
2482.000004995834
 31
-1379.051287506078
  0
LINE
  5
4E3
330
4CA
100
AcDbEntity
  8
OBJECT
100
AcDbLine
 10
2253.500000738229
 20
2482.000004995834
 30
-1379.051287506078
 11
2253.500000738229
 21
1599.000004995834
 31
-1379.051287506078
  0
POLYLINE
  5
4E4
330
4CA
100
AcDbEntity
  8
OBJECT
100
AcDb2dPolyline
 66
     1
 10
0.0
 20
0.0
 30
-1379.051287506078
  0
VERTEX
  5
8DE
330
4E4
100
AcDbEntity
  8
OBJECT
100
AcDbVertex
100
AcDb2dVertex
 10
1606.000000738229
 20
1897.500004995833
 30
-1379.051287506078
  0
VERTEX
  5
8DF
330
4E4
100
AcDbEntity
  8
OBJECT
100
AcDbVertex
100
AcDb2dVertex
 10
1608.000000738229
 20
1897.500004995833
 30
-1379.051287506078
 42
-0.4142135623730952
  0
VERTEX
  5
8E0
330
4E4
100
AcDbEntity
  8
OBJECT
100
AcDbVertex
100
AcDb2dVertex
 10
1616.000000738229
 20
1889.500004995834
 30
-1379.051287506078
  0
VERTEX
  5
8E1
330
4E4
100
AcDbEntity
  8
OBJECT
100
AcDbVertex
100
AcDb2dVertex
 10
1616.000000738229
 20
1855.500004995834
 30
-1379.051287506078
 42
-0.4142135623730952
  0
VERTEX
  5
8E2
330
4E4
100
AcDbEntity
  8
OBJECT
100
AcDbVertex
100
AcDb2dVertex
 10
1608.000000738229
 20
1847.500004995834
 30
-1379.051287506078
  0
VERTEX
  5
8E3
330
4E4
100
AcDbEntity
  8
OBJECT
100
AcDbVertex
100
AcDb2dVertex
 10
1606.000000738229
 20
1847.500004995834
 30
-1379.051287506078
  0
SEQEND
  5
8E4
330
4E4
100
AcDbEntity
  8
OBJECT
  0
POLYLINE
  5
4E5
330
4CA
100
AcDbEntity
  8
OBJECT
100
AcDb2dPolyline
 66
     1
 10
0.0
 20
0.0
 30
-1379.051287506078
  0
VERTEX
  5
8E5
330
4E5
100
AcDbEntity
  8
OBJECT
100
AcDbVertex
100
AcDb2dVertex
 10
1581.000000738229
 20
1595.500004995836
 30
-1379.051287506078
  0
VERTEX
  5
8E6
330
4E5
100
AcDbEntity
  8
OBJECT
100
AcDbVertex
100
AcDb2dVertex
 10
1581.000000738229
 20
2485.500004995836
 30
-1379.051287506078
  0
SEQEND
  5
8E7
330
4E5
100
AcDbEntity
  8
OBJECT
  0
LINE
  5
4E6
330
4CA
100
AcDbEntity
  8
OBJECT
100
AcDbLine
 10
1515.500000738229
 20
1599.000004995834
 30
-1379.051287506078
 11
1515.500000738229
 21
2482.000004995834
 31
-1379.051287506078
  0
LINE
  5
4E7
330
4CA
100
AcDbEntity
  8
OBJECT
100
AcDbLine
 10
1549.500000738229
 20
2482.000004995834
 30
-1379.051287506078
 11
1549.500000738229
 21
1599.000004995834
 31
-1379.051287506078
  0
POLYLINE
  5
4E8
330
4CA
100
AcDbEntity
  8
OBJECT
100
AcDb2dPolyline
 66
     1
 10
0.0
 20
0.0
 30
-1379.051287506078
 70
     1
  0
VERTEX
  5
8E8
330
4E8
100
AcDbEntity
  8
OBJECT
100
AcDbVertex
100
AcDb2dVertex
 10
1616.000000738229
 20
1889.500004995834
 30
-1379.051287506078
  0
VERTEX
  5
8E9
330
4E8
100
AcDbEntity
  8
OBJECT
100
AcDbVertex
100
AcDb2dVertex
 10
1826.000000738229
 20
1889.500004995834
 30
-1379.051287506078
  0
VERTEX
  5
8EA
330
4E8
100
AcDbEntity
  8
OBJECT
100
AcDbVertex
100
AcDb2dVertex
 10
1826.000000738229
 20
1855.500004995834
 30
-1379.051287506078
  0
VERTEX
  5
8EB
330
4E8
100
AcDbEntity
  8
OBJECT
100
AcDbVertex
100
AcDb2dVertex
 10
1616.000000738229
 20
1855.500004995834
 30
-1379.051287506078
  0
SEQEND
  5
8EC
330
4E8
100
AcDbEntity
  8
OBJECT
  0
POLYLINE
  5
4E9
330
4CA
100
AcDbEntity
  8
OBJECT
100
AcDb2dPolyline
 66
     1
 10
0.0
 20
0.0
 30
-1379.051287506078
 70
     1
  0
VERTEX
  5
8ED
330
4E9
100
AcDbEntity
  8
OBJECT
100
AcDbVertex
100
AcDb2dVertex
 10
1943.000000738229
 20
1557.500004995834
 30
-1379.051287506078
  0
VERTEX
  5
8EE
330
4E9
100
AcDbEntity
  8
OBJECT
100
AcDbVertex
100
AcDb2dVertex
 10
2153.000000738229
 20
1557.500004995834
 30
-1379.051287506078
  0
VERTEX
  5
8EF
330
4E9
100
AcDbEntity
  8
OBJECT
100
AcDbVertex
100
AcDb2dVertex
 10
2153.000000738229
 20
1523.500004995834
 30
-1379.051287506078
  0
VERTEX
  5
8F0
330
4E9
100
AcDbEntity
  8
OBJECT
100
AcDbVertex
100
AcDb2dVertex
 10
1943.000000738229
 20
1523.500004995834
 30
-1379.051287506078
  0
SEQEND
  5
8F1
330
4E9
100
AcDbEntity
  8
OBJECT
  0
CIRCLE
  5
4EA
330
4CA
100
AcDbEntity
  8
OBJECT
100
AcDbCircle
 10
1562.500000738229
 20
1570.500004995835
 30
-1379.051287506078
 40
14.0
  0
POLYLINE
  5
4EB
330
4CA
100
AcDbEntity
  8
OBJECT
100
AcDb2dPolyline
 66
     1
 10
0.0
 20
0.0
 30
-1379.051287506078
  0
VERTEX
  5
8F2
330
4EB
100
AcDbEntity
  8
OBJECT
100
AcDbVertex
100
AcDb2dVertex
 10
1508.885622460567
 20
1595.500004995836
 30
-1379.051287506078
 42
-0.2482675702531844
  0
VERTEX
  5
8F3
330
4EB
100
AcDbEntity
  8
OBJECT
100
AcDbVertex
100
AcDb2dVertex
 10
1515.500000738229
 20
1599.000004995834
 30
-1379.051287506078
  0
VERTEX
  5
8F4
330
4EB
100
AcDbEntity
  8
OBJECT
100
AcDbVertex
100
AcDb2dVertex
 10
1549.500000738229
 20
1599.000004995834
 30
-1379.051287506078
 42
-0.2482675702531731
  0
VERTEX
  5
8F5
330
4EB
100
AcDbEntity
  8
OBJECT
100
AcDbVertex
100
AcDb2dVertex
 10
1556.114379015889
 20
1595.500004995836
 30
-1379.051287506078
 42
-0.2482675702531731
  0
SEQEND
  5
8F6
330
4EB
100
AcDbEntity
  8
OBJECT
  0
LINE
  5
4EC
330
4CA
100
AcDbEntity
  8
OBJECT
 62
     0
100
AcDbLine
 10
1556.114379015889
 20
1595.500004995836
 30
-1379.051287506078
 11
1508.885622460567
 21
1595.500004995836
 31
-1379.051287506078
  0
LINE
  5
4ED
330
4CA
100
AcDbEntity
  8
OBJECT
100
AcDbLine
 10
1481.500000738229
 20
1595.500004995836
 30
-1379.051287506078
 11
1583.500000738229
 21
1595.500004995836
 31
-1379.051287506078
  0
LINE
  5
4EE
330
4CA
100
AcDbEntity
  8
OBJECT
100
AcDbLine
 10
1583.500000738228
 20
1485.500004995834
 30
-1379.051287506078
 11
1481.500000738229
 21
1485.50000499583
 31
-1379.051287506078
  0
REGION
  5
4EF
330
4CA
100
AcDbEntity
  8
OBJECT
100
AcDbModelerGeometry
 70
     1
  1
noi gi n o          
  1
=0;& {n {m {rn {rn |
  1
9@=0;&r3(;r>++-6= {rn {l {rn {o |
  1
3*2/ {k {rn {j {o |
  1
-:9@)+r3(;r>++-6= {rn {rn {n {o {i {h |
  1
-:9@)+r3(;r>++-6= {rn {rn {rn {m {i {h |
  1
,7:33 {g {rn {rn {f {m |
  1
-:961:2:1+ {rn o o o o mqkilgmljjifooomkk o o k o o o o o o o o |
  1
):-+:'@+:2/3>+: {rn l o n g |
  1
-:9@)+r3(;r>++-6= {rn {rn {rn {j {i {h |
  1
9><: {no {rn {nn {j {rn {nm 90-(>-; ;0*=3: 0*+ |
  1
99><:r3(;r>++-6= {rn {nl {rn {f |
  1
300/ {rn {nk {nj {f |
  1
/3>1:r,*-9><: {rn njglqjooooohlgmlnk njfjqjooookffjglim rnlhfqojnmghjoiohfm o o n n o o n V V V V |
  1
-:9@)+r3(;r>++-6= {rn {rn {no {f {i {rn |
  1
300/ {rn {ni {nh {f |
  1
<0:;8: {ng {nf {mo {rn {mn o {nn {rn |
  1
300/ {rn {rn {mm {f |
  1
<0:;8: {ml {nh {nh {rn {mk n {nk {rn |
  1
<0/>-r3(;r>++-6= {rn {rn {rn {nj |
  1
<0:;8: {mj {mi {nj {rn {mh o {nn {rn |
  1
<0:;8: {mg {nj {mf {rn {lo o {nn {rn |
  1
:;8: {ln {lm {ll {nj {lk o |
  1
<0:;8: {lj {mm {mm {rn {li n {ni {rn |
  1
<0/>-r3(;r>++-6= {rn {rn {rn {nh |
  1
:;8: {lh {lg {lg {nh {lf o |
  1
<0/>-r3(;r>++-6= {rn {rn {rn {nf |
  1
<0:;8: {ko {kn {nf {rn {km o {nn {rn |
  1
:;8: {kl {ll {kk {nf {kj o |
  1
<0/>-r3(;r>++-6= {rn {rn {rn {mo |
  1
<0:;8: {ki {mo {kh {rn {kg o {nn {rn |
  1
:;8: {kf {jo {lm {mo {jn o |
  1
:/>-r3(;r>++-6= {rn {rn {rn {mn |
  1
):-+:' {rn {mn {jm |
  1
):-+:' {rn {mn {jl |
  1
,+->687+r<*-): {rn nkgnqjooooohlgmmfi njfjqjooookffjglim rnlhfqojnmghjoiohfm rn o o V V |
  1
<0/>-r3(;r>++-6= {rn {rn {rn {mm |
  1
:;8: {jk {jj {jj {mm {ji o |
  1
:/>-r3(;r>++-6= {rn {rn {rn {mk |
  1
):-+:' {rn {mk {jh |
  1
:336/,:r<*-): {rn njomqjooooohlgmmhg njnoqjooookffjglim rnlhfqojnmghjoiohfm o o n nk o o n V V |
  1
<0/>-r3(;r>++-6= {rn {rn {rn {mi |
  1
<0:;8: {jg {jf {mi {rn {io o {nn {rn |
  1
:;8: {in {kk {im {mi {il o |
  1
:/>-r3(;r>++-6= {rn {rn {rn {mh |
  1
):-+:' {rn {mh {ik |
  1
:336/,:r<*-): {rn nkgnqjooooohlgmmfi njfnqjooookffjglim rnlhfqojnmghjoiohfm o o n rmqgmgkmhnmkhkingfg mqgmgkmhnmkhkingfg o n V V |
  1
<0/>-r3(;r>++-6= {rn {rn {rn {mf |
  1
<0:;8: {ij {mf {jf {rn {ii o {nn {rn |
  1
:;8: {ih {ig {jo {mf {if o |
  1
:/>-r3(;r>++-6= {rn {rn {rn {lo |
  1
):-+:' {rn {kg {ho |
  1
:336/,:r<*-): {rn njglqjooooohlgmlnk njfnqjooookffjglim rnlhfqojnmghjoiohfm o o n mqgmgkmhnmkhkinion mqgmgkmhnmkhkinion o n V V |
  1
/061+ {rn njglqjooooohlgmlnk njfjqjooookffjglim rnlhfqojnmghjoiohfm |
  1
/061+ {rn nkgnqjooooohlgmmfi njfjqjooookffjglim rnlhfqojnmghjoiohfm |
  1
:/>-r3(;r>++-6= {rn {rn {rn {li |
  1
):-+:' {rn {li {hn |
  1
:336/,:r<*-): {rn njimqjooooohlgmlnk njhoqjooookffjglim rnlhfqojnmghjoiohfm o o n rnk o o n V V |
  1
/061+ {rn njniqjooooohlgmmhg njnoqjooookffjglim rnlhfqojnmghjoiohfm |
  1
<0/>-r3(;r>++-6= {rn {rn {rn {kn |
  1
<0:;8: {hm {kh {kn {rn {hl o {nn {rn |
  1
:;8: {hk {im {hj {kn {hi o |
  1
:/>-r3(;r>++-6= {rn {rn {rn {km |
  1
):-+:' {rn {km {hh |
  1
,+->687+r<*-): {rn nkhhqjooooohlgmmfi nkgfqjooookffjglim rnlhfqojnmghjoiohfm o rn o V V |
  1
/061+ {rn nkhhqjooooohlgmmfi njfnqjooookffjglim rnlhfqojnmghjoiohfm |
  1
<0/>-r3(;r>++-6= {rn {rn {rn {kh |
  1
:;8: {hg {hf {ig {kh {go o |
  1
:/>-r3(;r>++-6= {rn {rn {rn {kg |
  1
):-+:' {rn {ii {gn |
  1
,+->687+r<*-): {rn njghqjooooohlgmlnk njfnqjooookffjglim rnlhfqojnmghjoiohfm mqihkfgkknifhfmnmh:ronk n o V V |
  1
/061+ {rn njghqjooooohlgmlnk njfnqjooookffjglim rnlhfqojnmghjoiohfm |
  1
/061+ {rn njkgqjooooohlgmlnk njhoqjooookffjglim rnlhfqojnmghjoiohfm |
  1
<0/>-r3(;r>++-6= {rn {rn {rn {jf |
  1
:;8: {gm {hj {hf {jf {gl o |
  1
:/>-r3(;r>++-6= {rn {rn {rn {io |
  1
):-+:' {rn {io {gk |
  1
:336/,:r<*-): {rn nkgnqjooooohlgmmfi nkgfqjooookffjglim rnlhfqojnmghjoiohfm o o n rmqgmgkmhnmkhkingkn rmqgmgkmhnmkhkingkn o n V V |
  1
/061+ {rn nkhhqjooooohlgmmfi nkgfqjooookffjglim rnlhfqojnmghjoiohfm |
  1
:/>-r3(;r>++-6= {rn {rn {rn {ii |
  1
):-+:' {rn {hl {gj |
  1
:336/,:r<*-): {rn njglqjooooohlgmmhg nkgfqjooookffjglim rnlhfqojnmghjoiohfm o o n mqgmgkmhnmkhkingfg rmqgmgkmhnmkhkingfg o n V V |
  1
/061+ {rn njghqjooooohlgmmhg nkgfqjooookffjglim rnlhfqojnmghjoiohfm |
  1
:/>-r3(;r>++-6= {rn {rn {rn {hl |
  1
,+->687+r<*-): {rn njglqjooooohlgmmhg nkgjqjooookffjglim rnlhfqojnmghjoiohfm n kqkjglohlinilmokoj:ronj o V V |
  1
/061+ {rn nkgnqjooooohlgmmfi nkgjqjooookffjglim rnlhfqojnmghjoiohfm |
  1
/061+ {rn njglqjooooohlgmmhg nkgjqjooookffjglim rnlhfqojnmghjoiohfm |
  0
CIRCLE
  5
4F0
330
4CA
100
AcDbEntity
  8
OBJECT
100
AcDbCircle
 10
1502.500000738229
 20
1510.500004995829
 30
-1379.051287506078
 40
14.0
  0
LINE
  5
4F1
330
4CA
100
AcDbEntity
  8
OBJECT
100
AcDbLine
 10
1477.500000738229
 20
1489.50000499583
 30
-1379.051287506078
 11
1477.500000738229
 21
1591.500004995836
 31
-1379.051287506078
  0
ARC
  5
4F2
330
4CA
100
AcDbEntity
  8
OBJECT
100
AcDbCircle
 10
1481.500000738229
 20
1489.50000499583
 30
-1379.051287506078
 40
3.999999999999958
100
AcDbArc
 50
180.0
 51
270.0
  0
ARC
  5
4F3
330
4CA
100
AcDbEntity
  8
OBJECT
100
AcDbCircle
 10
1481.500000738231
 20
1591.500004995836
 30
-1379.051287506078
 40
4.0
100
AcDbArc
 50
90.0
 51
180.0
  0
POLYLINE
  5
4F4
330
4CA
100
AcDbEntity
  8
OBJECT
100
AcDb2dPolyline
 66
     1
 10
0.0
 20
0.0
 30
-1379.051287506078
 70
     1
  0
VERTEX
  5
8F7
330
4F4
100
AcDbEntity
  8
OBJECT
100
AcDbVertex
100
AcDb2dVertex
 10
1616.000000738229
 20
1557.500004995834
 30
-1379.051287506078
  0
VERTEX
  5
8F8
330
4F4
100
AcDbEntity
  8
OBJECT
100
AcDbVertex
100
AcDb2dVertex
 10
1826.000000738229
 20
1557.500004995834
 30
-1379.051287506078
  0
VERTEX
  5
8F9
330
4F4
100
AcDbEntity
  8
OBJECT
100
AcDbVertex
100
AcDb2dVertex
 10
1826.000000738229
 20
1523.500004995834
 30
-1379.051287506078
  0
VERTEX
  5
8FA
330
4F4
100
AcDbEntity
  8
OBJECT
100
AcDbVertex
100
AcDb2dVertex
 10
1616.000000738229
 20
1523.500004995834
 30
-1379.051287506078
  0
SEQEND
  5
8FB
330
4F4
100
AcDbEntity
  8
OBJECT
  0
LINE
  5
4F5
330
4CA
100
AcDbEntity
  8
OBJECT
100
AcDbLine
 10
1587.500000738229
 20
1591.500004995836
 30
-1379.051287506078
 11
1587.500000738226
 21
1489.500004995838
 31
-1379.051287506078
  0
ARC
  5
4F6
330
4CA
100
AcDbEntity
  8
OBJECT
100
AcDbCircle
 10
1583.500000738228
 20
1489.500004995838
 30
-1379.051287506078
 40
4.0
100
AcDbArc
 50
270.0
 51
0.0
  0
ARC
  5
4F7
330
4CA
100
AcDbEntity
  8
OBJECT
100
AcDbCircle
 10
1583.500000738229
 20
1591.500004995836
 30
-1379.051287506078
 40
3.999999999999991
100
AcDbArc
 50
0.0
 51
90.0
  0
POLYLINE
  5
4F8
330
4CA
100
AcDbEntity
  8
OBJECT
100
AcDb2dPolyline
 66
     1
 10
0.0
 20
0.0
 30
-1379.051287506078
  0
VERTEX
  5
8FC
330
4F8
100
AcDbEntity
  8
OBJECT
100
AcDbVertex
100
AcDb2dVertex
 10
1606.000000738229
 20
1565.500004995834
 30
-1379.051287506078
  0
VERTEX
  5
8FD
330
4F8
100
AcDbEntity
  8
OBJECT
100
AcDbVertex
100
AcDb2dVertex
 10
1608.000000738229
 20
1565.500004995834
 30
-1379.051287506078
 42
-0.4142135623730952
  0
VERTEX
  5
8FE
330
4F8
100
AcDbEntity
  8
OBJECT
100
AcDbVertex
100
AcDb2dVertex
 10
1616.000000738229
 20
1557.500004995834
 30
-1379.051287506078
  0
VERTEX
  5
8FF
330
4F8
100
AcDbEntity
  8
OBJECT
100
AcDbVertex
100
AcDb2dVertex
 10
1616.000000738229
 20
1523.500004995834
 30
-1379.051287506078
 42
-0.4142135623730952
  0
VERTEX
  5
900
330
4F8
100
AcDbEntity
  8
OBJECT
100
AcDbVertex
100
AcDb2dVertex
 10
1608.000000738229
 20
1515.500004995834
 30
-1379.051287506078
  0
VERTEX
  5
901
330
4F8
100
AcDbEntity
  8
OBJECT
100
AcDbVertex
100
AcDb2dVertex
 10
1606.000000738229
 20
1515.500004995834
 30
-1379.051287506078
  0
SEQEND
  5
902
330
4F8
100
AcDbEntity
  8
OBJECT
  0
POLYLINE
  5
4F9
330
4CA
100
AcDbEntity
  8
OBJECT
100
AcDb2dPolyline
 66
     1
 10
0.0
 20
0.0
 30
-1379.051287506078
  0
VERTEX
  5
903
330
4F9
100
AcDbEntity
  8
OBJECT
100
AcDbVertex
100
AcDb2dVertex
 10
1587.500000738231
 20
1516.885626718142
 30
-1379.051287506078
 42
0.2482675702512566
  0
VERTEX
  5
904
330
4F9
100
AcDbEntity
  8
OBJECT
100
AcDbVertex
100
AcDb2dVertex
 10
1591.000000738182
 20
1523.50000499577
 30
-1379.051287506078
  0
VERTEX
  5
905
330
4F9
100
AcDbEntity
  8
OBJECT
100
AcDbVertex
100
AcDb2dVertex
 10
1591.000000738182
 20
1557.500004995771
 30
-1379.051287506078
  0
VERTEX
  5
906
330
4F9
100
AcDbEntity
  8
OBJECT
100
AcDbVertex
100
AcDb2dVertex
 10
1591.000000738182
 20
1557.500004995771
 30
-1379.051287506078
 42
0.2482675702512566
  0
VERTEX
  5
907
330
4F9
100
AcDbEntity
  8
OBJECT
100
AcDbVertex
100
AcDb2dVertex
 10
1587.500000738231
 20
1564.114383273397
 30
-1379.051287506078
  0
SEQEND
  5
908
330
4F9
100
AcDbEntity
  8
OBJECT
  0
POLYLINE
  5
4FA
330
4CA
100
AcDbEntity
  8
OBJECT
100
AcDb2dPolyline
 66
     1
 10
0.0
 20
0.0
 30
-1379.051287506078
  0
VERTEX
  5
909
330
4FA
100
AcDbEntity
  8
OBJECT
100
AcDbVertex
100
AcDb2dVertex
 10
1836.000000738229
 20
1565.500004995834
 30
-1379.051287506078
  0
VERTEX
  5
90A
330
4FA
100
AcDbEntity
  8
OBJECT
100
AcDbVertex
100
AcDb2dVertex
 10
1834.000000738229
 20
1565.500004995834
 30
-1379.051287506078
 42
0.4142135623730952
  0
VERTEX
  5
90B
330
4FA
100
AcDbEntity
  8
OBJECT
100
AcDbVertex
100
AcDb2dVertex
 10
1826.000000738229
 20
1557.500004995834
 30
-1379.051287506078
  0
VERTEX
  5
90C
330
4FA
100
AcDbEntity
  8
OBJECT
100
AcDbVertex
100
AcDb2dVertex
 10
1826.000000738229
 20
1523.500004995834
 30
-1379.051287506078
 42
0.4142135623730952
  0
VERTEX
  5
90D
330
4FA
100
AcDbEntity
  8
OBJECT
100
AcDbVertex
100
AcDb2dVertex
 10
1834.000000738229
 20
1515.500004995834
 30
-1379.051287506078
  0
VERTEX
  5
90E
330
4FA
100
AcDbEntity
  8
OBJECT
100
AcDbVertex
100
AcDb2dVertex
 10
1836.000000738229
 20
1515.500004995834
 30
-1379.051287506078
  0
SEQEND
  5
90F
330
4FA
100
AcDbEntity
  8
OBJECT
  0
POLYLINE
  5
4FB
330
4CA
100
AcDbEntity
  8
OBJECT
100
AcDb2dPolyline
 66
     1
 10
0.0
 20
0.0
 30
-1379.051287506078
  0
VERTEX
  5
910
330
4FB
100
AcDbEntity
  8
OBJECT
100
AcDbVertex
100
AcDb2dVertex
 10
1933.000000738229
 20
1565.500004995834
 30
-1379.051287506078
  0
VERTEX
  5
911
330
4FB
100
AcDbEntity
  8
OBJECT
100
AcDbVertex
100
AcDb2dVertex
 10
1935.000000738229
 20
1565.500004995834
 30
-1379.051287506078
 42
-0.4142135623730952
  0
VERTEX
  5
912
330
4FB
100
AcDbEntity
  8
OBJECT
100
AcDbVertex
100
AcDb2dVertex
 10
1943.000000738229
 20
1557.500004995834
 30
-1379.051287506078
  0
VERTEX
  5
913
330
4FB
100
AcDbEntity
  8
OBJECT
100
AcDbVertex
100
AcDb2dVertex
 10
1943.000000738229
 20
1523.500004995834
 30
-1379.051287506078
 42
-0.4142135623730952
  0
VERTEX
  5
914
330
4FB
100
AcDbEntity
  8
OBJECT
100
AcDbVertex
100
AcDb2dVertex
 10
1935.000000738229
 20
1515.500004995834
 30
-1379.051287506078
  0
VERTEX
  5
915
330
4FB
100
AcDbEntity
  8
OBJECT
100
AcDbVertex
100
AcDb2dVertex
 10
1933.000000738229
 20
1515.500004995834
 30
-1379.051287506078
  0
SEQEND
  5
916
330
4FB
100
AcDbEntity
  8
OBJECT
  0
POLYLINE
  5
4FC
330
4CA
100
AcDbEntity
  8
OBJECT
100
AcDb2dPolyline
 66
     1
 10
0.0
 20
0.0
 30
-1379.051287506078
  0
VERTEX
  5
917
330
4FC
100
AcDbEntity
  8
OBJECT
100
AcDbVertex
100
AcDb2dVertex
 10
2212.885622460567
 20
1595.500004995836
 30
-1379.051287506078
 42
-0.2482675702531844
  0
VERTEX
  5
918
330
4FC
100
AcDbEntity
  8
OBJECT
100
AcDbVertex
100
AcDb2dVertex
 10
2219.500000738229
 20
1599.000004995834
 30
-1379.051287506078
  0
VERTEX
  5
919
330
4FC
100
AcDbEntity
  8
OBJECT
100
AcDbVertex
100
AcDb2dVertex
 10
2253.500000738229
 20
1599.000004995834
 30
-1379.051287506078
 42
-0.2482675702531731
  0
VERTEX
  5
91A
330
4FC
100
AcDbEntity
  8
OBJECT
100
AcDbVertex
100
AcDb2dVertex
 10
2260.114379015889
 20
1595.500004995836
 30
-1379.051287506078
 42
-0.2482675702531731
  0
SEQEND
  5
91B
330
4FC
100
AcDbEntity
  8
OBJECT
  0
LINE
  5
4FD
330
4CA
100
AcDbEntity
  8
OBJECT
 62
     0
100
AcDbLine
 10
2212.885622460567
 20
1595.500004995836
 30
-1379.051287506078
 11
2260.114379015889
 21
1595.500004995836
 31
-1379.051287506078
  0
CIRCLE
  5
4FE
330
4CA
100
AcDbEntity
  8
OBJECT
100
AcDbCircle
 10
2206.500000738229
 20
1510.500004995829
 30
-1379.051287506078
 40
14.0
  0
REGION
  5
4FF
330
4CA
100
AcDbEntity
  8
OBJECT
100
AcDbModelerGeometry
 70
     1
  1
noi gi n o          
  1
=0;& {n {m {rn {rn |
  1
9@=0;&r3(;r>++-6= {rn {l {rn {o |
  1
3*2/ {k {rn {j {o |
  1
-:9@)+r3(;r>++-6= {rn {rn {n {o {i {h |
  1
-:9@)+r3(;r>++-6= {rn {rn {rn {m {i {h |
  1
,7:33 {g {rn {rn {f {m |
  1
-:961:2:1+ {rn o o o o mqkilgmljjifooomkk o o k o o o o o o o o |
  1
):-+:'@+:2/3>+: {rn l o n g |
  1
-:9@)+r3(;r>++-6= {rn {rn {rn {j {i {h |
  1
9><: {no {rn {nn {j {rn {nm 90-(>-; ;0*=3: 0*+ |
  1
99><:r3(;r>++-6= {rn {nl {rn {f |
  1
300/ {rn {nk {nj {f |
  1
/3>1:r,*-9><: {rn mmghqjooooohlgmlnk njfjqjooookffjglim rnlhfqojnmghjoiohfm o o n n o o n V V V V |
  1
-:9@)+r3(;r>++-6= {rn {rn {no {f {i {rn |
  1
300/ {rn {ni {nh {f |
  1
<0:;8: {ng {nf {mo {rn {mn o {nn {rn |
  1
300/ {rn {rn {mm {f |
  1
<0:;8: {ml {nh {nh {rn {mk n {nk {rn |
  1
<0/>-r3(;r>++-6= {rn {rn {rn {nj |
  1
<0:;8: {mj {mi {nj {rn {mh o {nn {rn |
  1
<0:;8: {mg {nj {mf {rn {lo o {nn {rn |
  1
:;8: {ln {lm {ll {nj {lk o |
  1
<0:;8: {lj {mm {mm {rn {li n {ni {rn |
  1
<0/>-r3(;r>++-6= {rn {rn {rn {nh |
  1
:;8: {lh {lg {lg {nh {lf o |
  1
<0/>-r3(;r>++-6= {rn {rn {rn {nf |
  1
<0:;8: {ko {kn {nf {rn {km o {nn {rn |
  1
:;8: {kl {ll {kk {nf {kj o |
  1
<0/>-r3(;r>++-6= {rn {rn {rn {mo |
  1
<0:;8: {ki {mo {kh {rn {kg o {nn {rn |
  1
:;8: {kf {jo {lm {mo {jn o |
  1
:/>-r3(;r>++-6= {rn {rn {rn {mn |
  1
):-+:' {rn {mn {jm |
  1
):-+:' {rn {mn {jl |
  1
,+->687+r<*-): {rn mngjqjooooohlgmmfi njfjqjooookffjglim rnlhfqojnmghjoiohfm rn o o V V |
  1
<0/>-r3(;r>++-6= {rn {rn {rn {mm |
  1
:;8: {jk {jj {jj {mm {ji o |
  1
:/>-r3(;r>++-6= {rn {rn {rn {mk |
  1
):-+:' {rn {mk {jh |
  1
:336/,:r<*-): {rn mmoiqjooooohlgmmhg njnoqjooookffjglim rnlhfqojnmghjoiohfm o o n nk o o n V V |
  1
<0/>-r3(;r>++-6= {rn {rn {rn {mi |
  1
<0:;8: {jg {jf {mi {rn {io o {nn {rn |
  1
:;8: {in {kk {im {mi {il o |
  1
:/>-r3(;r>++-6= {rn {rn {rn {mh |
  1
):-+:' {rn {mh {ik |
  1
:336/,:r<*-): {rn mngjqjooooohlgmmfi njfnqjooookffjglim rnlhfqojnmghjoiohfm o o n rmqgmgkmhnmkhkingfg mqgmgkmhnmkhkingfg o n V V |
  1
<0/>-r3(;r>++-6= {rn {rn {rn {mf |
  1
<0:;8: {ij {mf {jf {rn {ii o {nn {rn |
  1
:;8: {ih {ig {jo {mf {if o |
  1
:/>-r3(;r>++-6= {rn {rn {rn {lo |
  1
):-+:' {rn {kg {ho |
  1
:336/,:r<*-): {rn mmghqjooooohlgmlnk njfnqjooookffjglim rnlhfqojnmghjoiohfm o o n mqgmgkmhnmkhkinion mqgmgkmhnmkhkinion o n V V |
  1
/061+ {rn mmghqjooooohlgmlnk njfjqjooookffjglim rnlhfqojnmghjoiohfm |
  1
/061+ {rn mngjqjooooohlgmmfi njfjqjooookffjglim rnlhfqojnmghjoiohfm |
  1
:/>-r3(;r>++-6= {rn {rn {rn {li |
  1
):-+:' {rn {li {hn |
  1
:336/,:r<*-): {rn mmiiqjooooohlgmlnk njhoqjooookffjglim rnlhfqojnmghjoiohfm o o n rnk o o n V V |
  1
/061+ {rn mmmoqjooooohlgmmhg njnoqjooookffjglim rnlhfqojnmghjoiohfm |
  1
<0/>-r3(;r>++-6= {rn {rn {rn {kn |
  1
<0:;8: {hm {kh {kn {rn {hl o {nn {rn |
  1
:;8: {hk {im {hj {kn {hi o |
  1
:/>-r3(;r>++-6= {rn {rn {rn {km |
  1
):-+:' {rn {km {hh |
  1
,+->687+r<*-): {rn mngnqjooooohlgmmfi nkgfqjooookffjglim rnlhfqojnmghjoiohfm o rn o V V |
  1
/061+ {rn mngnqjooooohlgmmfi njfnqjooookffjglim rnlhfqojnmghjoiohfm |
  1
<0/>-r3(;r>++-6= {rn {rn {rn {kh |
  1
:;8: {hg {hf {ig {kh {go o |
  1
:/>-r3(;r>++-6= {rn {rn {rn {kg |
  1
):-+:' {rn {ii {gn |
  1
,+->687+r<*-): {rn mmfnqjooooohlgmlnk njfnqjooookffjglim rnlhfqojnmghjoiohfm mqihkfgkknifhfmnmh:ronk n o V V |
  1
/061+ {rn mmfnqjooooohlgmlnk njfnqjooookffjglim rnlhfqojnmghjoiohfm |
  1
/061+ {rn mmjmqjooooohlgmlnk njhoqjooookffjglim rnlhfqojnmghjoiohfm |
  1
<0/>-r3(;r>++-6= {rn {rn {rn {jf |
  1
:;8: {gm {hj {hf {jf {gl o |
  1
:/>-r3(;r>++-6= {rn {rn {rn {io |
  1
):-+:' {rn {io {gk |
  1
:336/,:r<*-): {rn mngjqjooooohlgmmfi nkgfqjooookffjglim rnlhfqojnmghjoiohfm o o n rmqgmgkmhnmkhkingkn rmqgmgkmhnmkhkingkn o n V V |
  1
/061+ {rn mngnqjooooohlgmmfi nkgfqjooookffjglim rnlhfqojnmghjoiohfm |
  1
:/>-r3(;r>++-6= {rn {rn {rn {ii |
  1
):-+:' {rn {hl {gj |
  1
:336/,:r<*-): {rn mmghqjooooohlgmmhg nkgfqjooookffjglim rnlhfqojnmghjoiohfm o o n mqgmgkmhnmkhkingfg rmqgmgkmhnmkhkingfg o n V V |
  1
/061+ {rn mmfnqjooooohlgmmhg nkgfqjooookffjglim rnlhfqojnmghjoiohfm |
  1
:/>-r3(;r>++-6= {rn {rn {rn {hl |
  1
,+->687+r<*-): {rn mmghqjooooohlgmmhg nkgjqjooookffjglim rnlhfqojnmghjoiohfm n kqkjglohlinilmokoj:ronj o V V |
  1
/061+ {rn mngjqjooooohlgmmfi nkgjqjooookffjglim rnlhfqojnmghjoiohfm |
  1
/061+ {rn mmghqjooooohlgmmhg nkgjqjooookffjglim rnlhfqojnmghjoiohfm |
  0
LINE
  5
500
330
4CA
100
AcDbEntity
  8
OBJECT
100
AcDbLine
 10
2287.500000738228
 20
1485.500004995834
 30
-1379.051287506078
 11
2185.500000738229
 21
1485.50000499583
 31
-1379.051287506078
  0
LINE
  5
501
330
4CA
100
AcDbEntity
  8
OBJECT
100
AcDbLine
 10
2185.500000738229
 20
1595.500004995836
 30
-1379.051287506078
 11
2287.50000073823
 21
1595.500004995836
 31
-1379.051287506078
  0
LINE
  5
502
330
4CA
100
AcDbEntity
  8
OBJECT
100
AcDbLine
 10
2181.500000738229
 20
1489.50000499583
 30
-1379.051287506078
 11
2181.500000738229
 21
1591.500004995836
 31
-1379.051287506078
  0
ARC
  5
503
330
4CA
100
AcDbEntity
  8
OBJECT
100
AcDbCircle
 10
2185.500000738229
 20
1489.50000499583
 30
-1379.051287506078
 40
3.999999999999958
100
AcDbArc
 50
180.0
 51
270.0
  0
ARC
  5
504
330
4CA
100
AcDbEntity
  8
OBJECT
100
AcDbCircle
 10
2185.500000738231
 20
1591.500004995836
 30
-1379.051287506078
 40
4.0
100
AcDbArc
 50
90.0
 51
180.0
  0
POLYLINE
  5
505
330
4CA
100
AcDbEntity
  8
OBJECT
100
AcDb2dPolyline
 66
     1
 10
0.0
 20
0.0
 30
-1379.051287506078
  0
VERTEX
  5
91C
330
505
100
AcDbEntity
  8
OBJECT
100
AcDbVertex
100
AcDb2dVertex
 10
2163.000000738229
 20
1565.500004995834
 30
-1379.051287506078
  0
VERTEX
  5
91D
330
505
100
AcDbEntity
  8
OBJECT
100
AcDbVertex
100
AcDb2dVertex
 10
2161.000000738229
 20
1565.500004995834
 30
-1379.051287506078
 42
0.4142135623730952
  0
VERTEX
  5
91E
330
505
100
AcDbEntity
  8
OBJECT
100
AcDbVertex
100
AcDb2dVertex
 10
2153.000000738229
 20
1557.500004995834
 30
-1379.051287506078
  0
VERTEX
  5
91F
330
505
100
AcDbEntity
  8
OBJECT
100
AcDbVertex
100
AcDb2dVertex
 10
2153.000000738229
 20
1523.500004995834
 30
-1379.051287506078
 42
0.4142135623730952
  0
VERTEX
  5
920
330
505
100
AcDbEntity
  8
OBJECT
100
AcDbVertex
100
AcDb2dVertex
 10
2161.000000738229
 20
1515.500004995834
 30
-1379.051287506078
  0
VERTEX
  5
921
330
505
100
AcDbEntity
  8
OBJECT
100
AcDbVertex
100
AcDb2dVertex
 10
2163.000000738229
 20
1515.500004995834
 30
-1379.051287506078
  0
SEQEND
  5
922
330
505
100
AcDbEntity
  8
OBJECT
  0
LINE
  5
506
330
4CA
100
AcDbEntity
  8
OBJECT
100
AcDbLine
 10
2291.500000738229
 20
1591.500004995836
 30
-1379.051287506078
 11
2291.500000738226
 21
1489.500004995838
 31
-1379.051287506078
  0
ARC
  5
507
330
4CA
100
AcDbEntity
  8
OBJECT
100
AcDbCircle
 10
2287.500000738228
 20
1489.500004995838
 30
-1379.051287506078
 40
4.0
100
AcDbArc
 50
270.0
 51
0.0
  0
CIRCLE
  5
508
330
4CA
100
AcDbEntity
  8
OBJECT
100
AcDbCircle
 10
2266.500000738229
 20
1570.500004995835
 30
-1379.051287506078
 40
14.0
  0
ARC
  5
509
330
4CA
100
AcDbEntity
  8
OBJECT
100
AcDbCircle
 10
2287.50000073823
 20
1591.500004995836
 30
-1379.051287506078
 40
3.999999999999991
100
AcDbArc
 50
0.0
 51
90.0
  0
POLYLINE
  5
50A
330
4CA
100
AcDbEntity
  8
OBJECT
100
AcDb2dPolyline
 66
     1
 10
0.0
 20
0.0
 30
-1379.051287506078
 70
     1
  0
VERTEX
  5
923
330
50A
100
AcDbEntity
  8
OBJECT
100
AcDbVertex
100
AcDb2dVertex
 10
1943.000000738229
 20
2557.500004995834
 30
-1379.051287506078
  0
VERTEX
  5
924
330
50A
100
AcDbEntity
  8
OBJECT
100
AcDbVertex
100
AcDb2dVertex
 10
2153.000000738229
 20
2557.500004995834
 30
-1379.051287506078
  0
VERTEX
  5
925
330
50A
100
AcDbEntity
  8
OBJECT
100
AcDbVertex
100
AcDb2dVertex
 10
2153.000000738229
 20
2523.500004995834
 30
-1379.051287506078
  0
VERTEX
  5
926
330
50A
100
AcDbEntity
  8
OBJECT
100
AcDbVertex
100
AcDb2dVertex
 10
1943.000000738229
 20
2523.500004995834
 30
-1379.051287506078
  0
SEQEND
  5
927
330
50A
100
AcDbEntity
  8
OBJECT
  0
POLYLINE
  5
50B
330
4CA
100
AcDbEntity
  8
OBJECT
100
AcDb2dPolyline
 66
     1
 10
0.0
 20
0.0
 30
-1379.051287506078
 70
     1
  0
VERTEX
  5
928
330
50B
100
AcDbEntity
  8
OBJECT
100
AcDbVertex
100
AcDb2dVertex
 10
1943.000000738229
 20
2223.500004995834
 30
-1379.051287506078
  0
VERTEX
  5
929
330
50B
100
AcDbEntity
  8
OBJECT
100
AcDbVertex
100
AcDb2dVertex
 10
2153.000000738229
 20
2223.500004995834
 30
-1379.051287506078
  0
VERTEX
  5
92A
330
50B
100
AcDbEntity
  8
OBJECT
100
AcDbVertex
100
AcDb2dVertex
 10
2153.000000738229
 20
2189.500004995834
 30
-1379.051287506078
  0
VERTEX
  5
92B
330
50B
100
AcDbEntity
  8
OBJECT
100
AcDbVertex
100
AcDb2dVertex
 10
1943.000000738229
 20
2189.500004995834
 30
-1379.051287506078
  0
SEQEND
  5
92C
330
50B
100
AcDbEntity
  8
OBJECT
  0
POLYLINE
  5
50C
330
4CA
100
AcDbEntity
  8
OBJECT
100
AcDb2dPolyline
 66
     1
 10
0.0
 20
0.0
 30
-1379.051287506078
 70
     1
  0
VERTEX
  5
92D
330
50C
100
AcDbEntity
  8
OBJECT
100
AcDbVertex
100
AcDb2dVertex
 10
1616.000000738229
 20
2223.500004995834
 30
-1379.051287506078
  0
VERTEX
  5
92E
330
50C
100
AcDbEntity
  8
OBJECT
100
AcDbVertex
100
AcDb2dVertex
 10
1826.000000738229
 20
2223.500004995834
 30
-1379.051287506078
  0
VERTEX
  5
92F
330
50C
100
AcDbEntity
  8
OBJECT
100
AcDbVertex
100
AcDb2dVertex
 10
1826.000000738229
 20
2189.500004995834
 30
-1379.051287506078
  0
VERTEX
  5
930
330
50C
100
AcDbEntity
  8
OBJECT
100
AcDbVertex
100
AcDb2dVertex
 10
1616.000000738229
 20
2189.500004995834
 30
-1379.051287506078
  0
SEQEND
  5
931
330
50C
100
AcDbEntity
  8
OBJECT
  0
POLYLINE
  5
50D
330
4CA
100
AcDbEntity
  8
OBJECT
100
AcDb2dPolyline
 66
     1
 10
0.0
 20
0.0
 30
-1379.051287506078
  0
VERTEX
  5
932
330
50D
100
AcDbEntity
  8
OBJECT
100
AcDbVertex
100
AcDb2dVertex
 10
1606.000000738229
 20
2231.500004995834
 30
-1379.051287506078
  0
VERTEX
  5
933
330
50D
100
AcDbEntity
  8
OBJECT
100
AcDbVertex
100
AcDb2dVertex
 10
1608.000000738229
 20
2231.500004995834
 30
-1379.051287506078
 42
-0.4142135623730952
  0
VERTEX
  5
934
330
50D
100
AcDbEntity
  8
OBJECT
100
AcDbVertex
100
AcDb2dVertex
 10
1616.000000738229
 20
2223.500004995834
 30
-1379.051287506078
  0
VERTEX
  5
935
330
50D
100
AcDbEntity
  8
OBJECT
100
AcDbVertex
100
AcDb2dVertex
 10
1616.000000738229
 20
2189.500004995834
 30
-1379.051287506078
 42
-0.4142135623730952
  0
VERTEX
  5
936
330
50D
100
AcDbEntity
  8
OBJECT
100
AcDbVertex
100
AcDb2dVertex
 10
1608.000000738229
 20
2181.500004995834
 30
-1379.051287506078
  0
VERTEX
  5
937
330
50D
100
AcDbEntity
  8
OBJECT
100
AcDbVertex
100
AcDb2dVertex
 10
1606.000000738229
 20
2181.500004995834
 30
-1379.051287506078
  0
SEQEND
  5
938
330
50D
100
AcDbEntity
  8
OBJECT
  0
POLYLINE
  5
50E
330
4CA
100
AcDbEntity
  8
OBJECT
100
AcDb2dPolyline
 66
     1
 10
0.0
 20
0.0
 30
-1379.051287506078
  0
VERTEX
  5
939
330
50E
100
AcDbEntity
  8
OBJECT
100
AcDbVertex
100
AcDb2dVertex
 10
1836.000000738229
 20
2231.500004995834
 30
-1379.051287506078
  0
VERTEX
  5
93A
330
50E
100
AcDbEntity
  8
OBJECT
100
AcDbVertex
100
AcDb2dVertex
 10
1834.000000738229
 20
2231.500004995834
 30
-1379.051287506078
 42
0.4142135623730952
  0
VERTEX
  5
93B
330
50E
100
AcDbEntity
  8
OBJECT
100
AcDbVertex
100
AcDb2dVertex
 10
1826.000000738229
 20
2223.500004995834
 30
-1379.051287506078
  0
VERTEX
  5
93C
330
50E
100
AcDbEntity
  8
OBJECT
100
AcDbVertex
100
AcDb2dVertex
 10
1826.000000738229
 20
2189.500004995834
 30
-1379.051287506078
 42
0.4142135623730952
  0
VERTEX
  5
93D
330
50E
100
AcDbEntity
  8
OBJECT
100
AcDbVertex
100
AcDb2dVertex
 10
1834.000000738229
 20
2181.500004995834
 30
-1379.051287506078
  0
VERTEX
  5
93E
330
50E
100
AcDbEntity
  8
OBJECT
100
AcDbVertex
100
AcDb2dVertex
 10
1836.000000738229
 20
2181.500004995834
 30
-1379.051287506078
  0
SEQEND
  5
93F
330
50E
100
AcDbEntity
  8
OBJECT
  0
POLYLINE
  5
50F
330
4CA
100
AcDbEntity
  8
OBJECT
100
AcDb2dPolyline
 66
     1
 10
0.0
 20
0.0
 30
-1379.051287506078
  0
VERTEX
  5
940
330
50F
100
AcDbEntity
  8
OBJECT
100
AcDbVertex
100
AcDb2dVertex
 10
1933.000000738229
 20
2231.500004995834
 30
-1379.051287506078
  0
VERTEX
  5
941
330
50F
100
AcDbEntity
  8
OBJECT
100
AcDbVertex
100
AcDb2dVertex
 10
1935.000000738229
 20
2231.500004995834
 30
-1379.051287506078
 42
-0.4142135623730952
  0
VERTEX
  5
942
330
50F
100
AcDbEntity
  8
OBJECT
100
AcDbVertex
100
AcDb2dVertex
 10
1943.000000738229
 20
2223.500004995834
 30
-1379.051287506078
  0
VERTEX
  5
943
330
50F
100
AcDbEntity
  8
OBJECT
100
AcDbVertex
100
AcDb2dVertex
 10
1943.000000738229
 20
2189.500004995834
 30
-1379.051287506078
 42
-0.4142135623730952
  0
VERTEX
  5
944
330
50F
100
AcDbEntity
  8
OBJECT
100
AcDbVertex
100
AcDb2dVertex
 10
1935.000000738229
 20
2181.500004995834
 30
-1379.051287506078
  0
VERTEX
  5
945
330
50F
100
AcDbEntity
  8
OBJECT
100
AcDbVertex
100
AcDb2dVertex
 10
1933.000000738229
 20
2181.500004995834
 30
-1379.051287506078
  0
SEQEND
  5
946
330
50F
100
AcDbEntity
  8
OBJECT
  0
CIRCLE
  5
510
330
4CA
100
AcDbEntity
  8
OBJECT
100
AcDbCircle
 10
1562.500000738229
 20
2570.500004995835
 30
-1379.051287506078
 40
14.0
  0
POLYLINE
  5
511
330
4CA
100
AcDbEntity
  8
OBJECT
100
AcDb2dPolyline
 66
     1
 10
0.0
 20
0.0
 30
-1379.051287506078
  0
VERTEX
  5
947
330
511
100
AcDbEntity
  8
OBJECT
100
AcDbVertex
100
AcDb2dVertex
 10
1508.885622460567
 20
2595.500004995836
 30
-1379.051287506078
 42
-0.2482675702531844
  0
VERTEX
  5
948
330
511
100
AcDbEntity
  8
OBJECT
100
AcDbVertex
100
AcDb2dVertex
 10
1515.500000738229
 20
2599.000004995834
 30
-1379.051287506078
  0
VERTEX
  5
949
330
511
100
AcDbEntity
  8
OBJECT
100
AcDbVertex
100
AcDb2dVertex
 10
1549.500000738229
 20
2599.000004995834
 30
-1379.051287506078
 42
-0.2482675702531731
  0
VERTEX
  5
94A
330
511
100
AcDbEntity
  8
OBJECT
100
AcDbVertex
100
AcDb2dVertex
 10
1556.114379015889
 20
2595.500004995836
 30
-1379.051287506078
 42
-0.2482675702531731
  0
SEQEND
  5
94B
330
511
100
AcDbEntity
  8
OBJECT
  0
LINE
  5
512
330
4CA
100
AcDbEntity
  8
OBJECT
 62
     0
100
AcDbLine
 10
1508.885622460567
 20
2595.500004995836
 30
-1379.051287506078
 11
1556.114379015889
 21
2595.500004995836
 31
-1379.051287506078
  0
POLYLINE
  5
513
330
4CA
100
AcDbEntity
  8
OBJECT
100
AcDb2dPolyline
 66
     1
 10
0.0
 20
0.0
 30
-1379.051287506078
  0
VERTEX
  5
94C
330
513
100
AcDbEntity
  8
OBJECT
100
AcDbVertex
100
AcDb2dVertex
 10
1508.885622460567
 20
2485.500004995836
 30
-1379.051287506078
 42
0.2482675702533275
  0
VERTEX
  5
94D
330
513
100
AcDbEntity
  8
OBJECT
100
AcDbVertex
100
AcDb2dVertex
 10
1515.500000738229
 20
2482.000004995834
 30
-1379.051287506078
  0
VERTEX
  5
94E
330
513
100
AcDbEntity
  8
OBJECT
100
AcDbVertex
100
AcDb2dVertex
 10
1549.500000738229
 20
2482.000004995834
 30
-1379.051287506078
 42
0.2482675702533577
  0
VERTEX
  5
94F
330
513
100
AcDbEntity
  8
OBJECT
100
AcDbVertex
100
AcDb2dVertex
 10
1556.114379015892
 20
2485.500004995836
 30
-1379.051287506078
 42
0.2482675702533577
  0
SEQEND
  5
950
330
513
100
AcDbEntity
  8
OBJECT
  0
LINE
  5
514
330
4CA
100
AcDbEntity
  8
OBJECT
100
AcDbLine
 10
1583.500000738228
 20
2485.500004995834
 30
-1379.051287506078
 11
1481.500000738229
 21
2485.50000499583
 31
-1379.051287506078
  0
LINE
  5
515
330
4CA
100
AcDbEntity
  8
OBJECT
100
AcDbLine
 10
1481.500000738229
 20
2595.500004995836
 30
-1379.051287506078
 11
1583.500000738229
 21
2595.500004995836
 31
-1379.051287506078
  0
LINE
  5
516
330
4CA
100
AcDbEntity
  8
OBJECT
100
AcDbLine
 10
1477.500000738229
 20
2489.50000499583
 30
-1379.051287506078
 11
1477.500000738229
 21
2591.500004995836
 31
-1379.051287506078
  0
ARC
  5
517
330
4CA
100
AcDbEntity
  8
OBJECT
100
AcDbCircle
 10
1481.500000738229
 20
2489.50000499583
 30
-1379.051287506078
 40
3.999999999999958
100
AcDbArc
 50
180.0
 51
270.0
  0
CIRCLE
  5
518
330
4CA
100
AcDbEntity
  8
OBJECT
100
AcDbCircle
 10
1502.500000738229
 20
2510.500004995829
 30
-1379.051287506078
 40
14.0
  0
ARC
  5
519
330
4CA
100
AcDbEntity
  8
OBJECT
100
AcDbCircle
 10
1481.500000738231
 20
2591.500004995836
 30
-1379.051287506078
 40
4.0
100
AcDbArc
 50
90.0
 51
180.0
  0
POLYLINE
  5
51A
330
4CA
100
AcDbEntity
  8
OBJECT
100
AcDb2dPolyline
 66
     1
 10
0.0
 20
0.0
 30
-1379.051287506078
 70
     1
  0
VERTEX
  5
951
330
51A
100
AcDbEntity
  8
OBJECT
100
AcDbVertex
100
AcDb2dVertex
 10
1616.000000738229
 20
2557.500004995834
 30
-1379.051287506078
  0
VERTEX
  5
952
330
51A
100
AcDbEntity
  8
OBJECT
100
AcDbVertex
100
AcDb2dVertex
 10
1826.000000738229
 20
2557.500004995834
 30
-1379.051287506078
  0
VERTEX
  5
953
330
51A
100
AcDbEntity
  8
OBJECT
100
AcDbVertex
100
AcDb2dVertex
 10
1826.000000738229
 20
2523.500004995834
 30
-1379.051287506078
  0
VERTEX
  5
954
330
51A
100
AcDbEntity
  8
OBJECT
100
AcDbVertex
100
AcDb2dVertex
 10
1616.000000738229
 20
2523.500004995834
 30
-1379.051287506078
  0
SEQEND
  5
955
330
51A
100
AcDbEntity
  8
OBJECT
  0
LINE
  5
51B
330
4CA
100
AcDbEntity
  8
OBJECT
100
AcDbLine
 10
1587.500000738229
 20
2591.500004995836
 30
-1379.051287506078
 11
1587.500000738226
 21
2489.500004995838
 31
-1379.051287506078
  0
ARC
  5
51C
330
4CA
100
AcDbEntity
  8
OBJECT
100
AcDbCircle
 10
1583.500000738228
 20
2489.500004995838
 30
-1379.051287506078
 40
4.0
100
AcDbArc
 50
270.0
 51
0.0
  0
ARC
  5
51D
330
4CA
100
AcDbEntity
  8
OBJECT
100
AcDbCircle
 10
1583.500000738229
 20
2591.500004995836
 30
-1379.051287506078
 40
3.999999999999991
100
AcDbArc
 50
0.0
 51
90.0
  0
POLYLINE
  5
51E
330
4CA
100
AcDbEntity
  8
OBJECT
100
AcDb2dPolyline
 66
     1
 10
0.0
 20
0.0
 30
-1379.051287506078
  0
VERTEX
  5
956
330
51E
100
AcDbEntity
  8
OBJECT
100
AcDbVertex
100
AcDb2dVertex
 10
1606.000000738229
 20
2565.500004995834
 30
-1379.051287506078
  0
VERTEX
  5
957
330
51E
100
AcDbEntity
  8
OBJECT
100
AcDbVertex
100
AcDb2dVertex
 10
1608.000000738229
 20
2565.500004995834
 30
-1379.051287506078
 42
-0.4142135623730952
  0
VERTEX
  5
958
330
51E
100
AcDbEntity
  8
OBJECT
100
AcDbVertex
100
AcDb2dVertex
 10
1616.000000738229
 20
2557.500004995834
 30
-1379.051287506078
  0
VERTEX
  5
959
330
51E
100
AcDbEntity
  8
OBJECT
100
AcDbVertex
100
AcDb2dVertex
 10
1616.000000738229
 20
2523.500004995834
 30
-1379.051287506078
 42
-0.4142135623730952
  0
VERTEX
  5
95A
330
51E
100
AcDbEntity
  8
OBJECT
100
AcDbVertex
100
AcDb2dVertex
 10
1608.000000738229
 20
2515.500004995834
 30
-1379.051287506078
  0
VERTEX
  5
95B
330
51E
100
AcDbEntity
  8
OBJECT
100
AcDbVertex
100
AcDb2dVertex
 10
1606.000000738229
 20
2515.500004995834
 30
-1379.051287506078
  0
SEQEND
  5
95C
330
51E
100
AcDbEntity
  8
OBJECT
  0
POLYLINE
  5
51F
330
4CA
100
AcDbEntity
  8
OBJECT
100
AcDb2dPolyline
 66
     1
 10
0.0
 20
0.0
 30
-1379.051287506078
  0
VERTEX
  5
95D
330
51F
100
AcDbEntity
  8
OBJECT
100
AcDbVertex
100
AcDb2dVertex
 10
1587.500000738231
 20
2516.885626718143
 30
-1379.051287506078
 42
0.2482675702512566
  0
VERTEX
  5
95E
330
51F
100
AcDbEntity
  8
OBJECT
100
AcDbVertex
100
AcDb2dVertex
 10
1591.000000738182
 20
2523.500004995771
 30
-1379.051287506078
  0
VERTEX
  5
95F
330
51F
100
AcDbEntity
  8
OBJECT
100
AcDbVertex
100
AcDb2dVertex
 10
1591.000000738182
 20
2557.500004995771
 30
-1379.051287506078
  0
VERTEX
  5
960
330
51F
100
AcDbEntity
  8
OBJECT
100
AcDbVertex
100
AcDb2dVertex
 10
1591.000000738182
 20
2557.500004995771
 30
-1379.051287506078
 42
0.2482675702512566
  0
VERTEX
  5
961
330
51F
100
AcDbEntity
  8
OBJECT
100
AcDbVertex
100
AcDb2dVertex
 10
1587.500000738231
 20
2564.114383273397
 30
-1379.051287506078
  0
SEQEND
  5
962
330
51F
100
AcDbEntity
  8
OBJECT
  0
POLYLINE
  5
520
330
4CA
100
AcDbEntity
  8
OBJECT
100
AcDb2dPolyline
 66
     1
 10
0.0
 20
0.0
 30
-1379.051287506078
  0
VERTEX
  5
963
330
520
100
AcDbEntity
  8
OBJECT
100
AcDbVertex
100
AcDb2dVertex
 10
1836.000000738229
 20
2565.500004995834
 30
-1379.051287506078
  0
VERTEX
  5
964
330
520
100
AcDbEntity
  8
OBJECT
100
AcDbVertex
100
AcDb2dVertex
 10
1834.000000738229
 20
2565.500004995834
 30
-1379.051287506078
 42
0.4142135623730952
  0
VERTEX
  5
965
330
520
100
AcDbEntity
  8
OBJECT
100
AcDbVertex
100
AcDb2dVertex
 10
1826.000000738229
 20
2557.500004995834
 30
-1379.051287506078
  0
VERTEX
  5
966
330
520
100
AcDbEntity
  8
OBJECT
100
AcDbVertex
100
AcDb2dVertex
 10
1826.000000738229
 20
2523.500004995834
 30
-1379.051287506078
 42
0.4142135623730952
  0
VERTEX
  5
967
330
520
100
AcDbEntity
  8
OBJECT
100
AcDbVertex
100
AcDb2dVertex
 10
1834.000000738229
 20
2515.500004995834
 30
-1379.051287506078
  0
VERTEX
  5
968
330
520
100
AcDbEntity
  8
OBJECT
100
AcDbVertex
100
AcDb2dVertex
 10
1836.000000738229
 20
2515.500004995834
 30
-1379.051287506078
  0
SEQEND
  5
969
330
520
100
AcDbEntity
  8
OBJECT
  0
POLYLINE
  5
521
330
4CA
100
AcDbEntity
  8
OBJECT
100
AcDb2dPolyline
 66
     1
 10
0.0
 20
0.0
 30
-1379.051287506078
  0
VERTEX
  5
96A
330
521
100
AcDbEntity
  8
OBJECT
100
AcDbVertex
100
AcDb2dVertex
 10
1933.000000738229
 20
2565.500004995834
 30
-1379.051287506078
  0
VERTEX
  5
96B
330
521
100
AcDbEntity
  8
OBJECT
100
AcDbVertex
100
AcDb2dVertex
 10
1935.000000738229
 20
2565.500004995834
 30
-1379.051287506078
 42
-0.4142135623730952
  0
VERTEX
  5
96C
330
521
100
AcDbEntity
  8
OBJECT
100
AcDbVertex
100
AcDb2dVertex
 10
1943.000000738229
 20
2557.500004995834
 30
-1379.051287506078
  0
VERTEX
  5
96D
330
521
100
AcDbEntity
  8
OBJECT
100
AcDbVertex
100
AcDb2dVertex
 10
1943.000000738229
 20
2523.500004995834
 30
-1379.051287506078
 42
-0.4142135623730952
  0
VERTEX
  5
96E
330
521
100
AcDbEntity
  8
OBJECT
100
AcDbVertex
100
AcDb2dVertex
 10
1935.000000738229
 20
2515.500004995834
 30
-1379.051287506078
  0
VERTEX
  5
96F
330
521
100
AcDbEntity
  8
OBJECT
100
AcDbVertex
100
AcDb2dVertex
 10
1933.000000738229
 20
2515.500004995834
 30
-1379.051287506078
  0
SEQEND
  5
970
330
521
100
AcDbEntity
  8
OBJECT
  0
POLYLINE
  5
522
330
4CA
100
AcDbEntity
  8
OBJECT
100
AcDb2dPolyline
 66
     1
 10
0.0
 20
0.0
 30
-1379.051287506078
  0
VERTEX
  5
971
330
522
100
AcDbEntity
  8
OBJECT
100
AcDbVertex
100
AcDb2dVertex
 10
2163.000000738229
 20
2231.500004995834
 30
-1379.051287506078
  0
VERTEX
  5
972
330
522
100
AcDbEntity
  8
OBJECT
100
AcDbVertex
100
AcDb2dVertex
 10
2161.000000738229
 20
2231.500004995834
 30
-1379.051287506078
 42
0.4142135623730952
  0
VERTEX
  5
973
330
522
100
AcDbEntity
  8
OBJECT
100
AcDbVertex
100
AcDb2dVertex
 10
2153.000000738229
 20
2223.500004995834
 30
-1379.051287506078
  0
VERTEX
  5
974
330
522
100
AcDbEntity
  8
OBJECT
100
AcDbVertex
100
AcDb2dVertex
 10
2153.000000738229
 20
2189.500004995834
 30
-1379.051287506078
 42
0.4142135623730952
  0
VERTEX
  5
975
330
522
100
AcDbEntity
  8
OBJECT
100
AcDbVertex
100
AcDb2dVertex
 10
2161.000000738229
 20
2181.500004995834
 30
-1379.051287506078
  0
VERTEX
  5
976
330
522
100
AcDbEntity
  8
OBJECT
100
AcDbVertex
100
AcDb2dVertex
 10
2163.000000738229
 20
2181.500004995834
 30
-1379.051287506078
  0
SEQEND
  5
977
330
522
100
AcDbEntity
  8
OBJECT
  0
POLYLINE
  5
523
330
4CA
100
AcDbEntity
  8
OBJECT
100
AcDb2dPolyline
 66
     1
 10
0.0
 20
0.0
 30
-1379.051287506078
  0
VERTEX
  5
978
330
523
100
AcDbEntity
  8
OBJECT
100
AcDbVertex
100
AcDb2dVertex
 10
2212.885622460567
 20
2595.500004995836
 30
-1379.051287506078
 42
-0.2482675702531844
  0
VERTEX
  5
979
330
523
100
AcDbEntity
  8
OBJECT
100
AcDbVertex
100
AcDb2dVertex
 10
2219.500000738229
 20
2599.000004995834
 30
-1379.051287506078
  0
VERTEX
  5
97A
330
523
100
AcDbEntity
  8
OBJECT
100
AcDbVertex
100
AcDb2dVertex
 10
2253.500000738229
 20
2599.000004995834
 30
-1379.051287506078
 42
-0.2482675702531731
  0
VERTEX
  5
97B
330
523
100
AcDbEntity
  8
OBJECT
100
AcDbVertex
100
AcDb2dVertex
 10
2260.114379015889
 20
2595.500004995836
 30
-1379.051287506078
 42
-0.2482675702531731
  0
SEQEND
  5
97C
330
523
100
AcDbEntity
  8
OBJECT
  0
LINE
  5
524
330
4CA
100
AcDbEntity
  8
OBJECT
 62
     0
100
AcDbLine
 10
2212.885622460567
 20
2595.500004995836
 30
-1379.051287506078
 11
2260.114379015889
 21
2595.500004995836
 31
-1379.051287506078
  0
CIRCLE
  5
525
330
4CA
100
AcDbEntity
  8
OBJECT
100
AcDbCircle
 10
2206.500000738229
 20
2510.500004995829
 30
-1379.051287506078
 40
14.0
  0
POLYLINE
  5
526
330
4CA
100
AcDbEntity
  8
OBJECT
100
AcDb2dPolyline
 66
     1
 10
0.0
 20
0.0
 30
-1379.051287506078
  0
VERTEX
  5
97D
330
526
100
AcDbEntity
  8
OBJECT
100
AcDbVertex
100
AcDb2dVertex
 10
2212.885622460567
 20
2485.500004995836
 30
-1379.051287506078
 42
0.2482675702533275
  0
VERTEX
  5
97E
330
526
100
AcDbEntity
  8
OBJECT
100
AcDbVertex
100
AcDb2dVertex
 10
2219.500000738229
 20
2482.000004995834
 30
-1379.051287506078
  0
VERTEX
  5
97F
330
526
100
AcDbEntity
  8
OBJECT
100
AcDbVertex
100
AcDb2dVertex
 10
2253.500000738229
 20
2482.000004995834
 30
-1379.051287506078
 42
0.2482675702533577
  0
VERTEX
  5
980
330
526
100
AcDbEntity
  8
OBJECT
100
AcDbVertex
100
AcDb2dVertex
 10
2260.114379015893
 20
2485.500004995836
 30
-1379.051287506078
 42
0.2482675702533577
  0
SEQEND
  5
981
330
526
100
AcDbEntity
  8
OBJECT
  0
REGION
  5
527
330
4CA
100
AcDbEntity
  8
OBJECT
100
AcDbModelerGeometry
 70
     1
  1
noi gi n o          
  1
=0;& {n {m {rn {rn |
  1
9@=0;&r3(;r>++-6= {rn {l {rn {o |
  1
3*2/ {k {rn {j {o |
  1
-:9@)+r3(;r>++-6= {rn {rn {n {o {i {h |
  1
-:9@)+r3(;r>++-6= {rn {rn {rn {m {i {h |
  1
,7:33 {g {rn {rn {f {m |
  1
-:961:2:1+ {rn o o o o mqkilgmljjifooomkk o o k o o o o o o o o |
  1
):-+:'@+:2/3>+: {rn l o n g |
  1
-:9@)+r3(;r>++-6= {rn {rn {rn {j {i {h |
  1
9><: {no {rn {nn {j {rn {nm 90-(>-; ;0*=3: 0*+ |
  1
99><:r3(;r>++-6= {rn {nl {rn {f |
  1
300/ {rn {nk {nj {f |
  1
/3>1:r,*-9><: {rn mmghqjooooohlgmlnk mjfjqjooookffjglim rnlhfqojnmghjoiohfm o o n n o o n V V V V |
  1
-:9@)+r3(;r>++-6= {rn {rn {no {f {i {rn |
  1
300/ {rn {ni {nh {f |
  1
<0:;8: {ng {nf {mo {rn {mn o {nn {rn |
  1
300/ {rn {rn {mm {f |
  1
<0:;8: {ml {nh {nh {rn {mk n {nk {rn |
  1
<0/>-r3(;r>++-6= {rn {rn {rn {nj |
  1
<0:;8: {mj {mi {nj {rn {mh o {nn {rn |
  1
<0:;8: {mg {nj {mf {rn {lo o {nn {rn |
  1
:;8: {ln {lm {ll {nj {lk o |
  1
<0:;8: {lj {mm {mm {rn {li n {ni {rn |
  1
<0/>-r3(;r>++-6= {rn {rn {rn {nh |
  1
:;8: {lh {lg {lg {nh {lf o |
  1
<0/>-r3(;r>++-6= {rn {rn {rn {nf |
  1
<0:;8: {ko {kn {nf {rn {km o {nn {rn |
  1
:;8: {kl {ll {kk {nf {kj o |
  1
<0/>-r3(;r>++-6= {rn {rn {rn {mo |
  1
<0:;8: {ki {mo {kh {rn {kg o {nn {rn |
  1
:;8: {kf {jo {lm {mo {jn o |
  1
:/>-r3(;r>++-6= {rn {rn {rn {mn |
  1
):-+:' {rn {mn {jm |
  1
):-+:' {rn {mn {jl |
  1
,+->687+r<*-): {rn mngjqjooooohlgmmfi mjfjqjooookffjglim rnlhfqojnmghjoiohfm rn o o V V |
  1
<0/>-r3(;r>++-6= {rn {rn {rn {mm |
  1
:;8: {jk {jj {jj {mm {ji o |
  1
:/>-r3(;r>++-6= {rn {rn {rn {mk |
  1
):-+:' {rn {mk {jh |
  1
:336/,:r<*-): {rn mmoiqjooooohlgmmhg mjnoqjooookffjglim rnlhfqojnmghjoiohfm o o n nk o o n V V |
  1
<0/>-r3(;r>++-6= {rn {rn {rn {mi |
  1
<0:;8: {jg {jf {mi {rn {io o {nn {rn |
  1
:;8: {in {kk {im {mi {il o |
  1
:/>-r3(;r>++-6= {rn {rn {rn {mh |
  1
):-+:' {rn {mh {ik |
  1
:336/,:r<*-): {rn mngjqjooooohlgmmfi mjfnqjooookffjglim rnlhfqojnmghjoiohfm o o n rmqgmgkmhnmkhkingfg mqgmgkmhnmkhkingfg o n V V |
  1
<0/>-r3(;r>++-6= {rn {rn {rn {mf |
  1
<0:;8: {ij {mf {jf {rn {ii o {nn {rn |
  1
:;8: {ih {ig {jo {mf {if o |
  1
:/>-r3(;r>++-6= {rn {rn {rn {lo |
  1
):-+:' {rn {kg {ho |
  1
:336/,:r<*-): {rn mmghqjooooohlgmlnk mjfnqjooookffjglim rnlhfqojnmghjoiohfm o o n mqgmgkmhnmkhkinion mqgmgkmhnmkhkinion o n V V |
  1
/061+ {rn mmghqjooooohlgmlnk mjfjqjooookffjglim rnlhfqojnmghjoiohfm |
  1
/061+ {rn mngjqjooooohlgmmfi mjfjqjooookffjglim rnlhfqojnmghjoiohfm |
  1
:/>-r3(;r>++-6= {rn {rn {rn {li |
  1
):-+:' {rn {li {hn |
  1
:336/,:r<*-): {rn mmiiqjooooohlgmlnk mjhoqjooookffjglim rnlhfqojnmghjoiohfm o o n rnk o o n V V |
  1
/061+ {rn mmmoqjooooohlgmmhg mjnoqjooookffjglim rnlhfqojnmghjoiohfm |
  1
<0/>-r3(;r>++-6= {rn {rn {rn {kn |
  1
<0:;8: {hm {kh {kn {rn {hl o {nn {rn |
  1
:;8: {hk {im {hj {kn {hi o |
  1
:/>-r3(;r>++-6= {rn {rn {rn {km |
  1
):-+:' {rn {km {hh |
  1
,+->687+r<*-): {rn mngnqjooooohlgmmfi mkgfqjooookffjglim rnlhfqojnmghjoiohfm o rn o V V |
  1
/061+ {rn mngnqjooooohlgmmfi mjfnqjooookffjglim rnlhfqojnmghjoiohfm |
  1
<0/>-r3(;r>++-6= {rn {rn {rn {kh |
  1
:;8: {hg {hf {ig {kh {go o |
  1
:/>-r3(;r>++-6= {rn {rn {rn {kg |
  1
):-+:' {rn {ii {gn |
  1
,+->687+r<*-): {rn mmfnqjooooohlgmlnk mjfnqjooookffjglim rnlhfqojnmghjoiohfm mqihkfgkknifhfmnmh:ronk n o V V |
  1
/061+ {rn mmfnqjooooohlgmlnk mjfnqjooookffjglim rnlhfqojnmghjoiohfm |
  1
/061+ {rn mmjmqjooooohlgmlnk mjhoqjooookffjglim rnlhfqojnmghjoiohfm |
  1
<0/>-r3(;r>++-6= {rn {rn {rn {jf |
  1
:;8: {gm {hj {hf {jf {gl o |
  1
:/>-r3(;r>++-6= {rn {rn {rn {io |
  1
):-+:' {rn {io {gk |
  1
:336/,:r<*-): {rn mngjqjooooohlgmmfi mkgfqjooookffjglim rnlhfqojnmghjoiohfm o o n rmqgmgkmhnmkhkingkn rmqgmgkmhnmkhkingkn o n V V |
  1
/061+ {rn mngnqjooooohlgmmfi mkgfqjooookffjglim rnlhfqojnmghjoiohfm |
  1
:/>-r3(;r>++-6= {rn {rn {rn {ii |
  1
):-+:' {rn {hl {gj |
  1
:336/,:r<*-): {rn mmghqjooooohlgmmhg mkgfqjooookffjglim rnlhfqojnmghjoiohfm o o n mqgmgkmhnmkhkingfg rmqgmgkmhnmkhkingfg o n V V |
  1
/061+ {rn mmfnqjooooohlgmmhg mkgfqjooookffjglim rnlhfqojnmghjoiohfm |
  1
:/>-r3(;r>++-6= {rn {rn {rn {hl |
  1
,+->687+r<*-): {rn mmghqjooooohlgmmhg mkgjqjooookffjglim rnlhfqojnmghjoiohfm n kqkjglohlinilmokoj:ronj o V V |
  1
/061+ {rn mngjqjooooohlgmmfi mkgjqjooookffjglim rnlhfqojnmghjoiohfm |
  1
/061+ {rn mmghqjooooohlgmmhg mkgjqjooookffjglim rnlhfqojnmghjoiohfm |
  0
LINE
  5
528
330
4CA
100
AcDbEntity
  8
OBJECT
100
AcDbLine
 10
2287.500000738228
 20
2485.500004995834
 30
-1379.051287506078
 11
2185.500000738229
 21
2485.50000499583
 31
-1379.051287506078
  0
LINE
  5
529
330
4CA
100
AcDbEntity
  8
OBJECT
100
AcDbLine
 10
2185.500000738229
 20
2595.500004995836
 30
-1379.051287506078
 11
2287.50000073823
 21
2595.500004995836
 31
-1379.051287506078
  0
LINE
  5
52A
330
4CA
100
AcDbEntity
  8
OBJECT
100
AcDbLine
 10
2181.500000738229
 20
2489.50000499583
 30
-1379.051287506078
 11
2181.500000738229
 21
2591.500004995836
 31
-1379.051287506078
  0
ARC
  5
52B
330
4CA
100
AcDbEntity
  8
OBJECT
100
AcDbCircle
 10
2185.500000738229
 20
2489.50000499583
 30
-1379.051287506078
 40
3.999999999999958
100
AcDbArc
 50
180.0
 51
270.0
  0
ARC
  5
52C
330
4CA
100
AcDbEntity
  8
OBJECT
100
AcDbCircle
 10
2185.500000738231
 20
2591.500004995836
 30
-1379.051287506078
 40
4.0
100
AcDbArc
 50
90.0
 51
180.0
  0
POLYLINE
  5
52D
330
4CA
100
AcDbEntity
  8
OBJECT
100
AcDb2dPolyline
 66
     1
 10
0.0
 20
0.0
 30
-1379.051287506078
  0
VERTEX
  5
982
330
52D
100
AcDbEntity
  8
OBJECT
100
AcDbVertex
100
AcDb2dVertex
 10
2163.000000738229
 20
2565.500004995834
 30
-1379.051287506078
  0
VERTEX
  5
983
330
52D
100
AcDbEntity
  8
OBJECT
100
AcDbVertex
100
AcDb2dVertex
 10
2161.000000738229
 20
2565.500004995834
 30
-1379.051287506078
 42
0.4142135623730952
  0
VERTEX
  5
984
330
52D
100
AcDbEntity
  8
OBJECT
100
AcDbVertex
100
AcDb2dVertex
 10
2153.000000738229
 20
2557.500004995834
 30
-1379.051287506078
  0
VERTEX
  5
985
330
52D
100
AcDbEntity
  8
OBJECT
100
AcDbVertex
100
AcDb2dVertex
 10
2153.000000738229
 20
2523.500004995834
 30
-1379.051287506078
 42
0.4142135623730952
  0
VERTEX
  5
986
330
52D
100
AcDbEntity
  8
OBJECT
100
AcDbVertex
100
AcDb2dVertex
 10
2161.000000738229
 20
2515.500004995834
 30
-1379.051287506078
  0
VERTEX
  5
987
330
52D
100
AcDbEntity
  8
OBJECT
100
AcDbVertex
100
AcDb2dVertex
 10
2163.000000738229
 20
2515.500004995834
 30
-1379.051287506078
  0
SEQEND
  5
988
330
52D
100
AcDbEntity
  8
OBJECT
  0
LINE
  5
52E
330
4CA
100
AcDbEntity
  8
OBJECT
100
AcDbLine
 10
2291.500000738229
 20
2591.500004995836
 30
-1379.051287506078
 11
2291.500000738226
 21
2489.500004995838
 31
-1379.051287506078
  0
ARC
  5
52F
330
4CA
100
AcDbEntity
  8
OBJECT
100
AcDbCircle
 10
2287.500000738228
 20
2489.500004995838
 30
-1379.051287506078
 40
4.0
100
AcDbArc
 50
270.0
 51
0.0
  0
CIRCLE
  5
530
330
4CA
100
AcDbEntity
  8
OBJECT
100
AcDbCircle
 10
2266.500000738229
 20
2570.500004995835
 30
-1379.051287506078
 40
14.0
  0
ARC
  5
531
330
4CA
100
AcDbEntity
  8
OBJECT
100
AcDbCircle
 10
2287.50000073823
 20
2591.500004995836
 30
-1379.051287506078
 40
3.999999999999991
100
AcDbArc
 50
0.0
 51
90.0
  0
LINE
  5
532
330
4CA
100
AcDbEntity
  8
OBJECT
  6
BYBLOCK
100
AcDbLine
 10
3693.000000738225
 20
3893.250004995834
 30
-1379.051287506078
 11
4913.000000738225
 21
3893.250004995834
 31
-1379.051287506078
  0
LINE
  5
533
330
4CA
100
AcDbEntity
  8
OBJECT
  6
BYBLOCK
100
AcDbLine
 10
3693.000000738225
 20
3833.250004995834
 30
-1379.051287506078
 11
4913.000000738225
 21
3833.250004995834
 31
-1379.051287506078
  0
POLYLINE
  5
534
330
4CA
100
AcDbEntity
  8
OBJECT
100
AcDb2dPolyline
 66
     1
 10
0.0
 20
0.0
 30
-1379.051287506078
  0
VERTEX
  5
989
330
534
100
AcDbEntity
  8
OBJECT
100
AcDbVertex
100
AcDb2dVertex
 10
1541.500000738229
 20
3609.000004995836
 30
-1379.051287506078
  0
VERTEX
  5
98A
330
534
100
AcDbEntity
  8
OBJECT
100
AcDbVertex
100
AcDb2dVertex
 10
3635.500000738232
 20
3609.000004995836
 30
-1379.051287506078
  0
SEQEND
  5
98B
330
534
100
AcDbEntity
  8
OBJECT
  0
POLYLINE
  5
535
330
4CA
100
AcDbEntity
  8
OBJECT
100
AcDb2dPolyline
 66
     1
 10
0.0
 20
0.0
 30
-1379.051287506078
  0
VERTEX
  5
98C
330
535
100
AcDbEntity
  8
OBJECT
100
AcDbVertex
100
AcDb2dVertex
 10
1541.500000738229
 20
3676.000004995836
 30
-1379.051287506078
  0
VERTEX
  5
98D
330
535
100
AcDbEntity
  8
OBJECT
100
AcDbVertex
100
AcDb2dVertex
 10
3635.500000738232
 20
3676.000004995836
 30
-1379.051287506078
  0
SEQEND
  5
98E
330
535
100
AcDbEntity
  8
OBJECT
  0
POLYLINE
  5
536
330
4CA
100
AcDbEntity
  8
OBJECT
100
AcDb2dPolyline
 66
     1
 10
0.0
 20
0.0
 30
-1379.051287506078
  0
VERTEX
  5
98F
330
536
100
AcDbEntity
  8
OBJECT
100
AcDbVertex
100
AcDb2dVertex
 10
1541.500000738229
 20
3764.500004995836
 30
-1379.051287506078
  0
VERTEX
  5
990
330
536
100
AcDbEntity
  8
OBJECT
100
AcDbVertex
100
AcDb2dVertex
 10
3635.500000738232
 20
3764.500004995836
 30
-1379.051287506078
  0
SEQEND
  5
991
330
536
100
AcDbEntity
  8
OBJECT
  0
POLYLINE
  5
537
330
4CA
100
AcDbEntity
  8
OBJECT
100
AcDb2dPolyline
 66
     1
 10
0.0
 20
0.0
 30
-1379.051287506078
  0
VERTEX
  5
992
330
537
100
AcDbEntity
  8
OBJECT
100
AcDbVertex
100
AcDb2dVertex
 10
1541.500000738229
 20
3850.000004995834
 30
-1379.051287506078
  0
VERTEX
  5
993
330
537
100
AcDbEntity
  8
OBJECT
100
AcDbVertex
100
AcDb2dVertex
 10
3635.500000738232
 20
3850.000004995834
 30
-1379.051287506078
  0
SEQEND
  5
994
330
537
100
AcDbEntity
  8
OBJECT
  0
POLYLINE
  5
538
330
4CA
100
AcDbEntity
  8
OBJECT
100
AcDb2dPolyline
 66
     1
 10
0.0
 20
0.0
 30
-1379.051287506078
  0
VERTEX
  5
995
330
538
100
AcDbEntity
  8
OBJECT
100
AcDbVertex
100
AcDb2dVertex
 10
1541.500000738229
 20
3937.000004995834
 30
-1379.051287506078
  0
VERTEX
  5
996
330
538
100
AcDbEntity
  8
OBJECT
100
AcDbVertex
100
AcDb2dVertex
 10
3635.500000738232
 20
3937.000004995834
 30
-1379.051287506078
  0
SEQEND
  5
997
330
538
100
AcDbEntity
  8
OBJECT
  0
POLYLINE
  5
539
330
4CA
100
AcDbEntity
  8
OBJECT
100
AcDb2dPolyline
 66
     1
 10
0.0
 20
0.0
 30
-1379.051287506079
  0
VERTEX
  5
998
330
539
100
AcDbEntity
  8
OBJECT
100
AcDbVertex
100
AcDb2dVertex
 10
1541.500000738229
 20
4024.000004995833
 30
-1379.051287506079
  0
VERTEX
  5
999
330
539
100
AcDbEntity
  8
OBJECT
100
AcDbVertex
100
AcDb2dVertex
 10
3635.500000738232
 20
4024.000004995833
 30
-1379.051287506079
  0
SEQEND
  5
99A
330
539
100
AcDbEntity
  8
OBJECT
  0
POLYLINE
  5
53A
330
4CA
100
AcDbEntity
  8
OBJECT
100
AcDb2dPolyline
 66
     1
 10
0.0
 20
0.0
 30
-1379.051287506078
  0
VERTEX
  5
99B
330
53A
100
AcDbEntity
  8
OBJECT
100
AcDbVertex
100
AcDb2dVertex
 10
1541.500000738229
 20
3676.000004995836
 30
-1379.051287506078
  0
VERTEX
  5
99C
330
53A
100
AcDbEntity
  8
OBJECT
100
AcDbVertex
100
AcDb2dVertex
 10
3635.500000738232
 20
3676.000004995836
 30
-1379.051287506078
  0
SEQEND
  5
99D
330
53A
100
AcDbEntity
  8
OBJECT
  0
POLYLINE
  5
53B
330
4CA
100
AcDbEntity
  8
OBJECT
100
AcDb2dPolyline
 66
     1
 10
0.0
 20
0.0
 30
-1379.051287506078
  0
VERTEX
  5
99E
330
53B
100
AcDbEntity
  8
OBJECT
100
AcDbVertex
100
AcDb2dVertex
 10
1541.500000738229
 20
3763.000004995834
 30
-1379.051287506078
  0
VERTEX
  5
99F
330
53B
100
AcDbEntity
  8
OBJECT
100
AcDbVertex
100
AcDb2dVertex
 10
3635.500000738232
 20
3763.000004995834
 30
-1379.051287506078
  0
SEQEND
  5
9A0
330
53B
100
AcDbEntity
  8
OBJECT
  0
POLYLINE
  5
53C
330
4CA
100
AcDbEntity
  8
OBJECT
100
AcDb2dPolyline
 66
     1
 10
0.0
 20
0.0
 30
-1379.051287506078
  0
VERTEX
  5
9A1
330
53C
100
AcDbEntity
  8
OBJECT
100
AcDbVertex
100
AcDb2dVertex
 10
1541.500000738229
 20
3848.500004995834
 30
-1379.051287506078
  0
VERTEX
  5
9A2
330
53C
100
AcDbEntity
  8
OBJECT
100
AcDbVertex
100
AcDb2dVertex
 10
3635.500000738232
 20
3848.500004995834
 30
-1379.051287506078
  0
SEQEND
  5
9A3
330
53C
100
AcDbEntity
  8
OBJECT
  0
POLYLINE
  5
53D
330
4CA
100
AcDbEntity
  8
OBJECT
100
AcDb2dPolyline
 66
     1
 10
0.0
 20
0.0
 30
-1379.051287506078
  0
VERTEX
  5
9A4
330
53D
100
AcDbEntity
  8
OBJECT
100
AcDbVertex
100
AcDb2dVertex
 10
1541.500000738229
 20
3937.000004995834
 30
-1379.051287506078
  0
VERTEX
  5
9A5
330
53D
100
AcDbEntity
  8
OBJECT
100
AcDbVertex
100
AcDb2dVertex
 10
3635.500000738232
 20
3937.000004995834
 30
-1379.051287506078
  0
SEQEND
  5
9A6
330
53D
100
AcDbEntity
  8
OBJECT
  0
POLYLINE
  5
53E
330
4CA
100
AcDbEntity
  8
OBJECT
100
AcDb2dPolyline
 66
     1
 10
0.0
 20
0.0
 30
-1379.051287506078
  0
VERTEX
  5
9A7
330
53E
100
AcDbEntity
  8
OBJECT
100
AcDbVertex
100
AcDb2dVertex
 10
1541.500000738229
 20
4024.000004995833
 30
-1379.051287506078
  0
VERTEX
  5
9A8
330
53E
100
AcDbEntity
  8
OBJECT
100
AcDbVertex
100
AcDb2dVertex
 10
3635.500000738232
 20
4024.000004995833
 30
-1379.051287506078
  0
SEQEND
  5
9A9
330
53E
100
AcDbEntity
  8
OBJECT
  0
POLYLINE
  5
53F
330
4CA
100
AcDbEntity
  8
OBJECT
100
AcDb2dPolyline
 66
     1
 10
0.0
 20
0.0
 30
-1379.051287506079
  0
VERTEX
  5
9AA
330
53F
100
AcDbEntity
  8
OBJECT
100
AcDbVertex
100
AcDb2dVertex
 10
1541.500000738229
 20
4111.000004995833
 30
-1379.051287506079
  0
VERTEX
  5
9AB
330
53F
100
AcDbEntity
  8
OBJECT
100
AcDbVertex
100
AcDb2dVertex
 10
3635.500000738232
 20
4111.000004995833
 30
-1379.051287506079
  0
SEQEND
  5
9AC
330
53F
100
AcDbEntity
  8
OBJECT
  0
POLYLINE
  5
540
330
4CA
100
AcDbEntity
  8
OBJECT
100
AcDb2dPolyline
 66
     1
 10
0.0
 20
0.0
 30
-1379.051287506078
  0
VERTEX
  5
9AD
330
540
100
AcDbEntity
  8
OBJECT
100
AcDbVertex
100
AcDb2dVertex
 10
3589.500000738228
 20
3589.000004995833
 30
-1379.051287506078
  0
VERTEX
  5
9AE
330
540
100
AcDbEntity
  8
OBJECT
100
AcDbVertex
100
AcDb2dVertex
 10
2291.500000738231
 20
3589.000004995833
 30
-1379.051287506078
  0
SEQEND
  5
9AF
330
540
100
AcDbEntity
  8
OBJECT
  0
POLYLINE
  5
541
330
4CA
100
AcDbEntity
  8
OBJECT
100
AcDb2dPolyline
 66
     1
 10
0.0
 20
0.0
 30
-1379.051287506078
  0
VERTEX
  5
9B0
330
541
100
AcDbEntity
  8
OBJECT
100
AcDbVertex
100
AcDb2dVertex
 10
3635.500000738232
 20
3694.500004995834
 30
-1379.051287506078
  0
VERTEX
  5
9B1
330
541
100
AcDbEntity
  8
OBJECT
100
AcDbVertex
100
AcDb2dVertex
 10
1541.500000738229
 20
3694.500004995834
 30
-1379.051287506078
  0
SEQEND
  5
9B2
330
541
100
AcDbEntity
  8
OBJECT
  0
POLYLINE
  5
542
330
4CA
100
AcDbEntity
  8
OBJECT
100
AcDb2dPolyline
 66
     1
 10
0.0
 20
0.0
 30
-1379.051287506078
  0
VERTEX
  5
9B3
330
542
100
AcDbEntity
  8
OBJECT
100
AcDbVertex
100
AcDb2dVertex
 10
3635.500000738232
 20
3609.000004995836
 30
-1379.051287506078
  0
VERTEX
  5
9B4
330
542
100
AcDbEntity
  8
OBJECT
100
AcDbVertex
100
AcDb2dVertex
 10
1541.500000738229
 20
3609.000004995836
 30
-1379.051287506078
  0
SEQEND
  5
9B5
330
542
100
AcDbEntity
  8
OBJECT
  0
POLYLINE
  5
543
330
4CA
100
AcDbEntity
  8
OBJECT
100
AcDb2dPolyline
 66
     1
 10
0.0
 20
0.0
 30
-1379.051287506078
  0
VERTEX
  5
9B6
330
543
100
AcDbEntity
  8
OBJECT
100
AcDbVertex
100
AcDb2dVertex
 10
3635.500000738232
 20
3696.000004995834
 30
-1379.051287506078
  0
VERTEX
  5
9B7
330
543
100
AcDbEntity
  8
OBJECT
100
AcDbVertex
100
AcDb2dVertex
 10
1541.500000738229
 20
3696.000004995834
 30
-1379.051287506078
  0
SEQEND
  5
9B8
330
543
100
AcDbEntity
  8
OBJECT
  0
POLYLINE
  5
544
330
4CA
100
AcDbEntity
  8
OBJECT
100
AcDb2dPolyline
 66
     1
 10
0.0
 20
0.0
 30
-1379.051287506078
  0
VERTEX
  5
9B9
330
544
100
AcDbEntity
  8
OBJECT
100
AcDbVertex
100
AcDb2dVertex
 10
3635.500000738232
 20
3783.000004995834
 30
-1379.051287506078
  0
VERTEX
  5
9BA
330
544
100
AcDbEntity
  8
OBJECT
100
AcDbVertex
100
AcDb2dVertex
 10
1541.500000738229
 20
3783.000004995834
 30
-1379.051287506078
  0
SEQEND
  5
9BB
330
544
100
AcDbEntity
  8
OBJECT
  0
POLYLINE
  5
545
330
4CA
100
AcDbEntity
  8
OBJECT
100
AcDb2dPolyline
 66
     1
 10
0.0
 20
0.0
 30
-1379.051287506078
  0
VERTEX
  5
9BC
330
545
100
AcDbEntity
  8
OBJECT
100
AcDbVertex
100
AcDb2dVertex
 10
3635.500000738232
 20
3781.500004995834
 30
-1379.051287506078
  0
VERTEX
  5
9BD
330
545
100
AcDbEntity
  8
OBJECT
100
AcDbVertex
100
AcDb2dVertex
 10
1541.500000738229
 20
3781.500004995834
 30
-1379.051287506078
  0
SEQEND
  5
9BE
330
545
100
AcDbEntity
  8
OBJECT
  0
POLYLINE
  5
546
330
4CA
100
AcDbEntity
  8
OBJECT
100
AcDb2dPolyline
 66
     1
 10
0.0
 20
0.0
 30
-1379.051287506078
  0
VERTEX
  5
9BF
330
546
100
AcDbEntity
  8
OBJECT
100
AcDbVertex
100
AcDb2dVertex
 10
3635.500000738232
 20
3868.500004995832
 30
-1379.051287506078
  0
VERTEX
  5
9C0
330
546
100
AcDbEntity
  8
OBJECT
100
AcDbVertex
100
AcDb2dVertex
 10
1541.500000738229
 20
3868.500004995832
 30
-1379.051287506078
  0
SEQEND
  5
9C1
330
546
100
AcDbEntity
  8
OBJECT
  0
POLYLINE
  5
547
330
4CA
100
AcDbEntity
  8
OBJECT
100
AcDb2dPolyline
 66
     1
 10
0.0
 20
0.0
 30
-1379.051287506078
  0
VERTEX
  5
9C2
330
547
100
AcDbEntity
  8
OBJECT
100
AcDbVertex
100
AcDb2dVertex
 10
3635.500000738232
 20
3870.000004995834
 30
-1379.051287506078
  0
VERTEX
  5
9C3
330
547
100
AcDbEntity
  8
OBJECT
100
AcDbVertex
100
AcDb2dVertex
 10
1541.500000738229
 20
3870.000004995834
 30
-1379.051287506078
  0
SEQEND
  5
9C4
330
547
100
AcDbEntity
  8
OBJECT
  0
POLYLINE
  5
548
330
4CA
100
AcDbEntity
  8
OBJECT
100
AcDb2dPolyline
 66
     1
 10
0.0
 20
0.0
 30
-1379.051287506078
  0
VERTEX
  5
9C5
330
548
100
AcDbEntity
  8
OBJECT
100
AcDbVertex
100
AcDb2dVertex
 10
3635.500000738232
 20
3955.500004995832
 30
-1379.051287506078
  0
VERTEX
  5
9C6
330
548
100
AcDbEntity
  8
OBJECT
100
AcDbVertex
100
AcDb2dVertex
 10
1541.500000738229
 20
3955.500004995832
 30
-1379.051287506078
  0
SEQEND
  5
9C7
330
548
100
AcDbEntity
  8
OBJECT
  0
POLYLINE
  5
549
330
4CA
100
AcDbEntity
  8
OBJECT
100
AcDb2dPolyline
 66
     1
 10
0.0
 20
0.0
 30
-1379.051287506078
  0
VERTEX
  5
9C8
330
549
100
AcDbEntity
  8
OBJECT
100
AcDbVertex
100
AcDb2dVertex
 10
3635.500000738232
 20
3957.000004995833
 30
-1379.051287506078
  0
VERTEX
  5
9C9
330
549
100
AcDbEntity
  8
OBJECT
100
AcDbVertex
100
AcDb2dVertex
 10
1541.500000738229
 20
3957.000004995833
 30
-1379.051287506078
  0
SEQEND
  5
9CA
330
549
100
AcDbEntity
  8
OBJECT
  0
POLYLINE
  5
54A
330
4CA
100
AcDbEntity
  8
OBJECT
100
AcDb2dPolyline
 66
     1
 10
0.0
 20
0.0
 30
-1379.051287506079
  0
VERTEX
  5
9CB
330
54A
100
AcDbEntity
  8
OBJECT
100
AcDbVertex
100
AcDb2dVertex
 10
3635.500000738232
 20
4042.500004995832
 30
-1379.051287506079
  0
VERTEX
  5
9CC
330
54A
100
AcDbEntity
  8
OBJECT
100
AcDbVertex
100
AcDb2dVertex
 10
1541.500000738229
 20
4042.500004995832
 30
-1379.051287506079
  0
SEQEND
  5
9CD
330
54A
100
AcDbEntity
  8
OBJECT
  0
POLYLINE
  5
54B
330
4CA
100
AcDbEntity
  8
OBJECT
100
AcDb2dPolyline
 66
     1
 10
0.0
 20
0.0
 30
-1379.051287506079
  0
VERTEX
  5
9CE
330
54B
100
AcDbEntity
  8
OBJECT
100
AcDbVertex
100
AcDb2dVertex
 10
3635.500000738232
 20
4044.000004995834
 30
-1379.051287506079
  0
VERTEX
  5
9CF
330
54B
100
AcDbEntity
  8
OBJECT
100
AcDbVertex
100
AcDb2dVertex
 10
1541.500000738229
 20
4044.000004995834
 30
-1379.051287506079
  0
SEQEND
  5
9D0
330
54B
100
AcDbEntity
  8
OBJECT
  0
POLYLINE
  5
54C
330
4CA
100
AcDbEntity
  8
OBJECT
100
AcDb2dPolyline
 66
     1
 10
0.0
 20
0.0
 30
-1379.051287506078
  0
VERTEX
  5
9D1
330
54C
100
AcDbEntity
  8
OBJECT
100
AcDbVertex
100
AcDb2dVertex
 10
3635.500000738232
 20
4111.000004995831
 30
-1379.051287506078
  0
VERTEX
  5
9D2
330
54C
100
AcDbEntity
  8
OBJECT
100
AcDbVertex
100
AcDb2dVertex
 10
1541.500000738229
 20
4111.000004995831
 30
-1379.051287506078
  0
SEQEND
  5
9D3
330
54C
100
AcDbEntity
  8
OBJECT
  0
POLYLINE
  5
54D
330
4CA
100
AcDbEntity
  8
OBJECT
100
AcDb2dPolyline
 66
     1
 10
0.0
 20
0.0
 30
-1379.051287506078
  0
VERTEX
  5
9D4
330
54D
100
AcDbEntity
  8
OBJECT
100
AcDbVertex
100
AcDb2dVertex
 10
2289.436492411325
 20
4131.000004995832
 30
-1379.051287506078
  0
VERTEX
  5
9D5
330
54D
100
AcDbEntity
  8
OBJECT
100
AcDbVertex
100
AcDb2dVertex
 10
3673.000000738228
 20
4131.000004995832
 30
-1379.051287506078
  0
VERTEX
  5
9D6
330
54D
100
AcDbEntity
  8
OBJECT
100
AcDbVertex
100
AcDb2dVertex
 10
3673.000000738228
 20
4111.000004995831
 30
-1379.051287506078
  0
VERTEX
  5
9D7
330
54D
100
AcDbEntity
  8
OBJECT
100
AcDbVertex
100
AcDb2dVertex
 10
3653.500000738233
 20
4111.000004995831
 30
-1379.051287506078
  0
SEQEND
  5
9D8
330
54D
100
AcDbEntity
  8
OBJECT
  0
LINE
  5
54E
330
4CA
100
AcDbEntity
  8
OBJECT
100
AcDbLine
 10
2295.000000738229
 20
3557.500004995834
 30
-1379.051287506078
 11
3586.000000738229
 21
3557.500004995834
 31
-1379.051287506078
  0
LINE
  5
54F
330
4CA
100
AcDbEntity
  8
OBJECT
100
AcDbLine
 10
3586.000000738229
 20
3523.500004995833
 30
-1379.051287506078
 11
2295.000000738229
 21
3523.500004995833
 31
-1379.051287506078
  0
LINE
  5
550
330
4CA
100
AcDbEntity
  8
OBJECT
100
AcDbLine
 10
2291.500000738226
 20
4142.000004995836
 30
-1379.051287506078
 11
3587.000000738228
 21
4142.000004995836
 31
-1379.051287506078
  0
LINE
  5
551
330
4CA
100
AcDbEntity
  8
OBJECT
100
AcDbLine
 10
3587.000000738228
 20
4229.000004995836
 30
-1379.051287506078
 11
2291.500000738231
 21
4229.000004995836
 31
-1379.051287506078
  0
POLYLINE
  5
552
330
4CA
100
AcDbEntity
  8
OBJECT
100
AcDb2dPolyline
 66
     1
 10
0.0
 20
0.0
 30
-1379.051287506078
  0
VERTEX
  5
9D9
330
552
100
AcDbEntity
  8
OBJECT
100
AcDbVertex
100
AcDb2dVertex
 10
1523.500000738229
 20
3868.500004995832
 30
-1379.051287506078
  0
VERTEX
  5
9DA
330
552
100
AcDbEntity
  8
OBJECT
100
AcDbVertex
100
AcDb2dVertex
 10
1504.000000738229
 20
3868.500004995832
 30
-1379.051287506078
  0
VERTEX
  5
9DB
330
552
100
AcDbEntity
  8
OBJECT
100
AcDbVertex
100
AcDb2dVertex
 10
1504.000000738229
 20
3850.000004995834
 30
-1379.051287506078
  0
VERTEX
  5
9DC
330
552
100
AcDbEntity
  8
OBJECT
100
AcDbVertex
100
AcDb2dVertex
 10
1523.500000738229
 20
3850.000004995834
 30
-1379.051287506078
  0
SEQEND
  5
9DD
330
552
100
AcDbEntity
  8
OBJECT
  0
LINE
  5
553
330
4CA
100
AcDbEntity
  8
OBJECT
100
AcDbLine
 10
1541.500000738229
 20
4130.500004995837
 30
-1379.051287506078
 11
1541.500000738229
 21
3595.500004995836
 31
-1379.051287506078
  0
LINE
  5
554
330
4CA
100
AcDbEntity
  8
OBJECT
100
AcDbLine
 10
1523.500000738229
 20
3595.500004995836
 30
-1379.051287506078
 11
1523.500000738229
 21
4130.500004995837
 31
-1379.051287506078
  0
POLYLINE
  5
555
330
4CA
100
AcDbEntity
  8
OBJECT
100
AcDb2dPolyline
 66
     1
 10
0.0
 20
0.0
 30
-1379.051287506078
  0
VERTEX
  5
9DE
330
555
100
AcDbEntity
  8
OBJECT
100
AcDbVertex
100
AcDb2dVertex
 10
1484.000000738229
 20
3595.500004995836
 30
-1379.051287506078
  0
VERTEX
  5
9DF
330
555
100
AcDbEntity
  8
OBJECT
100
AcDbVertex
100
AcDb2dVertex
 10
1484.000000738229
 20
4131.000004995835
 30
-1379.051287506078
  0
VERTEX
  5
9E0
330
555
100
AcDbEntity
  8
OBJECT
100
AcDbVertex
100
AcDb2dVertex
 10
1504.000000738229
 20
4131.000004995835
 30
-1379.051287506078
  0
VERTEX
  5
9E1
330
555
100
AcDbEntity
  8
OBJECT
100
AcDbVertex
100
AcDb2dVertex
 10
1504.000000738229
 20
3595.500004995836
 30
-1379.051287506078
  0
SEQEND
  5
9E2
330
555
100
AcDbEntity
  8
OBJECT
  0
POLYLINE
  5
556
330
4CA
100
AcDbEntity
  8
OBJECT
100
AcDb2dPolyline
 66
     1
 10
0.0
 20
0.0
 30
-1379.051287506078
 70
     1
  0
VERTEX
  5
9E3
330
556
100
AcDbEntity
  8
OBJECT
100
AcDbVertex
100
AcDb2dVertex
 10
1943.000000738229
 20
3557.500004995836
 30
-1379.051287506078
  0
VERTEX
  5
9E4
330
556
100
AcDbEntity
  8
OBJECT
100
AcDbVertex
100
AcDb2dVertex
 10
2153.000000738229
 20
3557.500004995836
 30
-1379.051287506078
  0
VERTEX
  5
9E5
330
556
100
AcDbEntity
  8
OBJECT
100
AcDbVertex
100
AcDb2dVertex
 10
2153.000000738229
 20
3523.500004995836
 30
-1379.051287506078
  0
VERTEX
  5
9E6
330
556
100
AcDbEntity
  8
OBJECT
100
AcDbVertex
100
AcDb2dVertex
 10
1943.000000738229
 20
3523.500004995836
 30
-1379.051287506078
  0
SEQEND
  5
9E7
330
556
100
AcDbEntity
  8
OBJECT
  0
POLYLINE
  5
557
330
4CA
100
AcDbEntity
  8
OBJECT
100
AcDb2dPolyline
 66
     1
 10
0.0
 20
0.0
 30
-1379.051287506078
 70
     1
  0
VERTEX
  5
9E8
330
557
100
AcDbEntity
  8
OBJECT
100
AcDbVertex
100
AcDb2dVertex
 10
1943.000000738229
 20
3225.500004995835
 30
-1379.051287506078
  0
VERTEX
  5
9E9
330
557
100
AcDbEntity
  8
OBJECT
100
AcDbVertex
100
AcDb2dVertex
 10
2153.000000738229
 20
3225.500004995835
 30
-1379.051287506078
  0
VERTEX
  5
9EA
330
557
100
AcDbEntity
  8
OBJECT
100
AcDbVertex
100
AcDb2dVertex
 10
2153.000000738229
 20
3191.500004995834
 30
-1379.051287506078
  0
VERTEX
  5
9EB
330
557
100
AcDbEntity
  8
OBJECT
100
AcDbVertex
100
AcDb2dVertex
 10
1943.000000738229
 20
3191.500004995834
 30
-1379.051287506078
  0
SEQEND
  5
9EC
330
557
100
AcDbEntity
  8
OBJECT
  0
POLYLINE
  5
558
330
4CA
100
AcDbEntity
  8
OBJECT
100
AcDb2dPolyline
 66
     1
 10
0.0
 20
0.0
 30
-1379.051287506078
  0
VERTEX
  5
9ED
330
558
100
AcDbEntity
  8
OBJECT
100
AcDbVertex
100
AcDb2dVertex
 10
2181.500000738229
 20
3589.000004995833
 30
-1379.051287506078
  0
VERTEX
  5
9EE
330
558
100
AcDbEntity
  8
OBJECT
100
AcDbVertex
100
AcDb2dVertex
 10
1587.500000738231
 20
3589.000004995833
 30
-1379.051287506078
  0
SEQEND
  5
9EF
330
558
100
AcDbEntity
  8
OBJECT
  0
POLYLINE
  5
559
330
4CA
100
AcDbEntity
  8
OBJECT
100
AcDb2dPolyline
 66
     1
 10
0.0
 20
0.0
 30
-1379.051287506078
 70
     1
  0
VERTEX
  5
9F0
330
559
100
AcDbEntity
  8
OBJECT
100
AcDbVertex
100
AcDb2dVertex
 10
1616.000000738229
 20
3225.500004995835
 30
-1379.051287506078
  0
VERTEX
  5
9F1
330
559
100
AcDbEntity
  8
OBJECT
100
AcDbVertex
100
AcDb2dVertex
 10
1826.000000738229
 20
3225.500004995835
 30
-1379.051287506078
  0
VERTEX
  5
9F2
330
559
100
AcDbEntity
  8
OBJECT
100
AcDbVertex
100
AcDb2dVertex
 10
1826.000000738229
 20
3191.500004995834
 30
-1379.051287506078
  0
VERTEX
  5
9F3
330
559
100
AcDbEntity
  8
OBJECT
100
AcDbVertex
100
AcDb2dVertex
 10
1616.000000738229
 20
3191.500004995834
 30
-1379.051287506078
  0
SEQEND
  5
9F4
330
559
100
AcDbEntity
  8
OBJECT
  0
POLYLINE
  5
55A
330
4CA
100
AcDbEntity
  8
OBJECT
100
AcDb2dPolyline
 66
     1
 10
0.0
 20
0.0
 30
-1379.051287506078
  0
VERTEX
  5
9F5
330
55A
100
AcDbEntity
  8
OBJECT
100
AcDbVertex
100
AcDb2dVertex
 10
1606.000000738229
 20
3233.500004995834
 30
-1379.051287506078
  0
VERTEX
  5
9F6
330
55A
100
AcDbEntity
  8
OBJECT
100
AcDbVertex
100
AcDb2dVertex
 10
1608.000000738229
 20
3233.500004995834
 30
-1379.051287506078
 42
-0.4142135623730952
  0
VERTEX
  5
9F7
330
55A
100
AcDbEntity
  8
OBJECT
100
AcDbVertex
100
AcDb2dVertex
 10
1616.000000738229
 20
3225.500004995835
 30
-1379.051287506078
  0
VERTEX
  5
9F8
330
55A
100
AcDbEntity
  8
OBJECT
100
AcDbVertex
100
AcDb2dVertex
 10
1616.000000738229
 20
3191.500004995834
 30
-1379.051287506078
 42
-0.4142135623730952
  0
VERTEX
  5
9F9
330
55A
100
AcDbEntity
  8
OBJECT
100
AcDbVertex
100
AcDb2dVertex
 10
1608.000000738229
 20
3183.500004995833
 30
-1379.051287506078
  0
VERTEX
  5
9FA
330
55A
100
AcDbEntity
  8
OBJECT
100
AcDbVertex
100
AcDb2dVertex
 10
1606.000000738229
 20
3183.500004995833
 30
-1379.051287506078
  0
SEQEND
  5
9FB
330
55A
100
AcDbEntity
  8
OBJECT
  0
POLYLINE
  5
55B
330
4CA
100
AcDbEntity
  8
OBJECT
100
AcDb2dPolyline
 66
     1
 10
0.0
 20
0.0
 30
-1379.051287506078
  0
VERTEX
  5
9FC
330
55B
100
AcDbEntity
  8
OBJECT
100
AcDbVertex
100
AcDb2dVertex
 10
1933.000000738229
 20
3233.500004995834
 30
-1379.051287506078
  0
VERTEX
  5
9FD
330
55B
100
AcDbEntity
  8
OBJECT
100
AcDbVertex
100
AcDb2dVertex
 10
1935.000000738229
 20
3233.500004995834
 30
-1379.051287506078
 42
-0.4142135623730952
  0
VERTEX
  5
9FE
330
55B
100
AcDbEntity
  8
OBJECT
100
AcDbVertex
100
AcDb2dVertex
 10
1943.000000738229
 20
3225.500004995835
 30
-1379.051287506078
  0
VERTEX
  5
9FF
330
55B
100
AcDbEntity
  8
OBJECT
100
AcDbVertex
100
AcDb2dVertex
 10
1943.000000738229
 20
3191.500004995834
 30
-1379.051287506078
 42
-0.4142135623730952
  0
VERTEX
  5
A00
330
55B
100
AcDbEntity
  8
OBJECT
100
AcDbVertex
100
AcDb2dVertex
 10
1935.000000738229
 20
3183.500004995833
 30
-1379.051287506078
  0
VERTEX
  5
A01
330
55B
100
AcDbEntity
  8
OBJECT
100
AcDbVertex
100
AcDb2dVertex
 10
1933.000000738229
 20
3183.500004995833
 30
-1379.051287506078
  0
SEQEND
  5
A02
330
55B
100
AcDbEntity
  8
OBJECT
  0
POLYLINE
  5
55C
330
4CA
100
AcDbEntity
  8
OBJECT
100
AcDb2dPolyline
 66
     1
 10
0.0
 20
0.0
 30
-1379.051287506078
  0
VERTEX
  5
A03
330
55C
100
AcDbEntity
  8
OBJECT
100
AcDbVertex
100
AcDb2dVertex
 10
1836.000000738229
 20
3233.500004995834
 30
-1379.051287506078
  0
VERTEX
  5
A04
330
55C
100
AcDbEntity
  8
OBJECT
100
AcDbVertex
100
AcDb2dVertex
 10
1834.000000738229
 20
3233.500004995834
 30
-1379.051287506078
 42
0.4142135623730952
  0
VERTEX
  5
A05
330
55C
100
AcDbEntity
  8
OBJECT
100
AcDbVertex
100
AcDb2dVertex
 10
1826.000000738229
 20
3225.500004995835
 30
-1379.051287506078
  0
VERTEX
  5
A06
330
55C
100
AcDbEntity
  8
OBJECT
100
AcDbVertex
100
AcDb2dVertex
 10
1826.000000738229
 20
3191.500004995834
 30
-1379.051287506078
 42
0.4142135623730952
  0
VERTEX
  5
A07
330
55C
100
AcDbEntity
  8
OBJECT
100
AcDbVertex
100
AcDb2dVertex
 10
1834.000000738229
 20
3183.500004995833
 30
-1379.051287506078
  0
VERTEX
  5
A08
330
55C
100
AcDbEntity
  8
OBJECT
100
AcDbVertex
100
AcDb2dVertex
 10
1836.000000738229
 20
3183.500004995833
 30
-1379.051287506078
  0
SEQEND
  5
A09
330
55C
100
AcDbEntity
  8
OBJECT
  0
CIRCLE
  5
55D
330
4CA
100
AcDbEntity
  8
OBJECT
100
AcDbCircle
 10
1562.500000738229
 20
3570.50000499584
 30
-1379.051287506078
 40
14.0
  0
POLYLINE
  5
55E
330
4CA
100
AcDbEntity
  8
OBJECT
100
AcDb2dPolyline
 66
     1
 10
0.0
 20
0.0
 30
-1379.051287506078
  0
VERTEX
  5
A0A
330
55E
100
AcDbEntity
  8
OBJECT
100
AcDbVertex
100
AcDb2dVertex
 10
1508.885622460567
 20
3485.500004995836
 30
-1379.051287506078
 42
0.2482675702533275
  0
VERTEX
  5
A0B
330
55E
100
AcDbEntity
  8
OBJECT
100
AcDbVertex
100
AcDb2dVertex
 10
1515.500000738229
 20
3482.000004995834
 30
-1379.051287506078
  0
VERTEX
  5
A0C
330
55E
100
AcDbEntity
  8
OBJECT
100
AcDbVertex
100
AcDb2dVertex
 10
1549.500000738229
 20
3482.000004995834
 30
-1379.051287506078
 42
0.2482675702533577
  0
VERTEX
  5
A0D
330
55E
100
AcDbEntity
  8
OBJECT
100
AcDbVertex
100
AcDb2dVertex
 10
1556.114379015892
 20
3485.500004995836
 30
-1379.051287506078
 42
0.2482675702533577
  0
SEQEND
  5
A0E
330
55E
100
AcDbEntity
  8
OBJECT
  0
LINE
  5
55F
330
4CA
100
AcDbEntity
  8
OBJECT
 62
     0
100
AcDbLine
 10
1508.885622460567
 20
3485.500004995836
 30
-1379.051287506078
 11
1556.114379015892
 21
3485.500004995836
 31
-1379.051287506078
  0
REGION
  5
560
330
4CA
100
AcDbEntity
  8
OBJECT
100
AcDbModelerGeometry
 70
     1
  1
noi gi n o          
  1
=0;& {n {m {rn {rn |
  1
9@=0;&r3(;r>++-6= {rn {l {rn {o |
  1
3*2/ {k {rn {j {o |
  1
-:9@)+r3(;r>++-6= {rn {rn {n {o {i {h |
  1
-:9@)+r3(;r>++-6= {rn {rn {rn {m {i {h |
  1
,7:33 {g {rn {rn {f {m |
  1
-:961:2:1+ {rn o o o o mqkilgmljjifooomkk o o k o o o o o o o o |
  1
):-+:'@+:2/3>+: {rn l o n g |
  1
-:9@)+r3(;r>++-6= {rn {rn {rn {j {i {h |
  1
9><: {no {rn {nn {j {rn {nm 90-(>-; ;0*=3: 0*+ |
  1
99><:r3(;r>++-6= {rn {nl {rn {f |
  1
300/ {rn {nk {nj {f |
  1
/3>1:r,*-9><: {rn njglqjooooohlgmlnk ljfjqjooookffjglim rnlhfqojnmghjoiohfm o o n n o o n V V V V |
  1
-:9@)+r3(;r>++-6= {rn {rn {no {f {i {rn |
  1
300/ {rn {ni {nh {f |
  1
<0:;8: {ng {nf {mo {rn {mn o {nn {rn |
  1
300/ {rn {rn {mm {f |
  1
<0:;8: {ml {nh {nh {rn {mk n {nk {rn |
  1
<0/>-r3(;r>++-6= {rn {rn {rn {nj |
  1
<0:;8: {mj {mi {nj {rn {mh o {nn {rn |
  1
<0:;8: {mg {nj {mf {rn {lo o {nn {rn |
  1
:;8: {ln {lm {ll {nj {lk o |
  1
<0:;8: {lj {mm {mm {rn {li n {ni {rn |
  1
<0/>-r3(;r>++-6= {rn {rn {rn {nh |
  1
:;8: {lh {lg {lg {nh {lf o |
  1
<0/>-r3(;r>++-6= {rn {rn {rn {nf |
  1
<0:;8: {ko {kn {nf {rn {km o {nn {rn |
  1
:;8: {kl {ll {kk {nf {kj o |
  1
<0/>-r3(;r>++-6= {rn {rn {rn {mo |
  1
<0:;8: {ki {mo {kh {rn {kg o {nn {rn |
  1
:;8: {kf {jo {lm {mo {jn o |
  1
:/>-r3(;r>++-6= {rn {rn {rn {mn |
  1
):-+:' {rn {mn {jm |
  1
):-+:' {rn {mn {jl |
  1
,+->687+r<*-): {rn nkgnqjooooohlgmmfi ljfjqjooookffjglim rnlhfqojnmghjoiohfm rn o o V V |
  1
<0/>-r3(;r>++-6= {rn {rn {rn {mm |
  1
:;8: {jk {jj {jj {mm {ji o |
  1
:/>-r3(;r>++-6= {rn {rn {rn {mk |
  1
):-+:' {rn {mk {jh |
  1
:336/,:r<*-): {rn njomqjooooohlgmmhg ljnoqjooookffjglim rnlhfqojnmghjoiohfm o o n nk o o n V V |
  1
<0/>-r3(;r>++-6= {rn {rn {rn {mi |
  1
<0:;8: {jg {jf {mi {rn {io o {nn {rn |
  1
:;8: {in {kk {im {mi {il o |
  1
:/>-r3(;r>++-6= {rn {rn {rn {mh |
  1
):-+:' {rn {mh {ik |
  1
:336/,:r<*-): {rn nkgnqjooooohlgmmfi ljfnqjooookffjglim rnlhfqojnmghjoiohfm o o n rmqgmgkmhnmkhkingfg mqgmgkmhnmkhkingfg o n V V |
  1
<0/>-r3(;r>++-6= {rn {rn {rn {mf |
  1
<0:;8: {ij {mf {jf {rn {ii o {nn {rn |
  1
:;8: {ih {ig {jo {mf {if o |
  1
:/>-r3(;r>++-6= {rn {rn {rn {lo |
  1
):-+:' {rn {kg {ho |
  1
:336/,:r<*-): {rn njglqjooooohlgmlnk ljfnqjooookffjglim rnlhfqojnmghjoiohfm o o n mqgmgkmhnmkhkinion mqgmgkmhnmkhkinion o n V V |
  1
/061+ {rn njglqjooooohlgmlnk ljfjqjooookffjglim rnlhfqojnmghjoiohfm |
  1
/061+ {rn nkgnqjooooohlgmmfi ljfjqjooookffjglim rnlhfqojnmghjoiohfm |
  1
:/>-r3(;r>++-6= {rn {rn {rn {li |
  1
):-+:' {rn {li {hn |
  1
:336/,:r<*-): {rn njimqjooooohlgmlnk ljhoqjooookffjglim rnlhfqojnmghjoiohfm o o n rnk o o n V V |
  1
/061+ {rn njniqjooooohlgmmhg ljnoqjooookffjglim rnlhfqojnmghjoiohfm |
  1
<0/>-r3(;r>++-6= {rn {rn {rn {kn |
  1
<0:;8: {hm {kh {kn {rn {hl o {nn {rn |
  1
:;8: {hk {im {hj {kn {hi o |
  1
:/>-r3(;r>++-6= {rn {rn {rn {km |
  1
):-+:' {rn {km {hh |
  1
,+->687+r<*-): {rn nkhhqjooooohlgmmfi lkgfqjooookffjglim rnlhfqojnmghjoiohfm o rn o V V |
  1
/061+ {rn nkhhqjooooohlgmmfi ljfnqjooookffjglim rnlhfqojnmghjoiohfm |
  1
<0/>-r3(;r>++-6= {rn {rn {rn {kh |
  1
:;8: {hg {hf {ig {kh {go o |
  1
:/>-r3(;r>++-6= {rn {rn {rn {kg |
  1
):-+:' {rn {ii {gn |
  1
,+->687+r<*-): {rn njghqjooooohlgmlnk ljfnqjooookffjglim rnlhfqojnmghjoiohfm mqihkfgkknifhfmnmh:ronk n o V V |
  1
/061+ {rn njghqjooooohlgmlnk ljfnqjooookffjglim rnlhfqojnmghjoiohfm |
  1
/061+ {rn njkgqjooooohlgmlnk ljhoqjooookffjglim rnlhfqojnmghjoiohfm |
  1
<0/>-r3(;r>++-6= {rn {rn {rn {jf |
  1
:;8: {gm {hj {hf {jf {gl o |
  1
:/>-r3(;r>++-6= {rn {rn {rn {io |
  1
):-+:' {rn {io {gk |
  1
:336/,:r<*-): {rn nkgnqjooooohlgmmfi lkgfqjooookffjglim rnlhfqojnmghjoiohfm o o n rmqgmgkmhnmkhkingkn rmqgmgkmhnmkhkingkn o n V V |
  1
/061+ {rn nkhhqjooooohlgmmfi lkgfqjooookffjglim rnlhfqojnmghjoiohfm |
  1
:/>-r3(;r>++-6= {rn {rn {rn {ii |
  1
):-+:' {rn {hl {gj |
  1
:336/,:r<*-): {rn njglqjooooohlgmmhg lkgfqjooookffjglim rnlhfqojnmghjoiohfm o o n mqgmgkmhnmkhkingfg rmqgmgkmhnmkhkingfg o n V V |
  1
/061+ {rn njghqjooooohlgmmhg lkgfqjooookffjglim rnlhfqojnmghjoiohfm |
  1
:/>-r3(;r>++-6= {rn {rn {rn {hl |
  1
,+->687+r<*-): {rn njglqjooooohlgmmhg lkgjqjooookffjglim rnlhfqojnmghjoiohfm n kqkjglohlinilmokoj:ronj o V V |
  1
/061+ {rn nkgnqjooooohlgmmfi lkgjqjooookffjglim rnlhfqojnmghjoiohfm |
  1
/061+ {rn njglqjooooohlgmmhg lkgjqjooookffjglim rnlhfqojnmghjoiohfm |
  0
LINE
  5
561
330
4CA
100
AcDbEntity
  8
OBJECT
100
AcDbLine
 10
1583.500000738228
 20
3485.500004995838
 30
-1379.051287506078
 11
1481.500000738229
 21
3485.500004995834
 31
-1379.051287506078
  0
LINE
  5
562
330
4CA
100
AcDbEntity
  8
OBJECT
100
AcDbLine
 10
1481.500000738229
 20
3595.50000499584
 30
-1379.051287506078
 11
1583.500000738229
 21
3595.50000499584
 31
-1379.051287506078
  0
POLYLINE
  5
563
330
4CA
100
AcDbEntity
  8
OBJECT
100
AcDb2dPolyline
 66
     1
 10
0.0
 20
0.0
 30
-1379.051287506078
  0
VERTEX
  5
A0F
330
563
100
AcDbEntity
  8
OBJECT
100
AcDbVertex
100
AcDb2dVertex
 10
1504.000000738229
 20
3595.500004995836
 30
-1379.051287506078
  0
VERTEX
  5
A10
330
563
100
AcDbEntity
  8
OBJECT
100
AcDbVertex
100
AcDb2dVertex
 10
1504.000000738229
 20
3609.000004995836
 30
-1379.051287506078
  0
VERTEX
  5
A11
330
563
100
AcDbEntity
  8
OBJECT
100
AcDbVertex
100
AcDb2dVertex
 10
1523.500000738229
 20
3609.000004995836
 30
-1379.051287506078
  0
SEQEND
  5
A12
330
563
100
AcDbEntity
  8
OBJECT
  0
ARC
  5
564
330
4CA
100
AcDbEntity
  8
OBJECT
100
AcDbCircle
 10
1481.500000738231
 20
3591.50000499584
 30
-1379.051287506078
 40
4.0
100
AcDbArc
 50
90.0
 51
180.0
  0
CIRCLE
  5
565
330
4CA
100
AcDbEntity
  8
OBJECT
100
AcDbCircle
 10
1502.500000738229
 20
3510.500004995833
 30
-1379.051287506078
 40
14.0
  0
ARC
  5
566
330
4CA
100
AcDbEntity
  8
OBJECT
100
AcDbCircle
 10
1481.500000738229
 20
3489.500004995834
 30
-1379.051287506078
 40
3.999999999999958
100
AcDbArc
 50
180.0
 51
270.0
  0
LINE
  5
567
330
4CA
100
AcDbEntity
  8
OBJECT
100
AcDbLine
 10
1477.500000738229
 20
3489.500004995834
 30
-1379.051287506078
 11
1477.500000738229
 21
3591.50000499584
 31
-1379.051287506078
  0
POLYLINE
  5
568
330
4CA
100
AcDbEntity
  8
OBJECT
100
AcDb2dPolyline
 66
     1
 10
0.0
 20
0.0
 30
-1379.051287506078
  0
VERTEX
  5
A13
330
568
100
AcDbEntity
  8
OBJECT
100
AcDbVertex
100
AcDb2dVertex
 10
1523.500000738229
 20
3696.000004995834
 30
-1379.051287506078
  0
VERTEX
  5
A14
330
568
100
AcDbEntity
  8
OBJECT
100
AcDbVertex
100
AcDb2dVertex
 10
1504.000000738229
 20
3696.000004995834
 30
-1379.051287506078
  0
VERTEX
  5
A15
330
568
100
AcDbEntity
  8
OBJECT
100
AcDbVertex
100
AcDb2dVertex
 10
1504.000000738229
 20
3763.000004995834
 30
-1379.051287506078
  0
VERTEX
  5
A16
330
568
100
AcDbEntity
  8
OBJECT
100
AcDbVertex
100
AcDb2dVertex
 10
1523.500000738229
 20
3763.000004995834
 30
-1379.051287506078
  0
SEQEND
  5
A17
330
568
100
AcDbEntity
  8
OBJECT
  0
POLYLINE
  5
569
330
4CA
100
AcDbEntity
  8
OBJECT
100
AcDb2dPolyline
 66
     1
 10
0.0
 20
0.0
 30
-1379.051287506078
  0
VERTEX
  5
A18
330
569
100
AcDbEntity
  8
OBJECT
100
AcDbVertex
100
AcDb2dVertex
 10
1523.500000738229
 20
3694.500004995834
 30
-1379.051287506078
  0
VERTEX
  5
A19
330
569
100
AcDbEntity
  8
OBJECT
100
AcDbVertex
100
AcDb2dVertex
 10
1504.000000738229
 20
3694.500004995834
 30
-1379.051287506078
  0
VERTEX
  5
A1A
330
569
100
AcDbEntity
  8
OBJECT
100
AcDbVertex
100
AcDb2dVertex
 10
1504.000000738229
 20
3676.000004995836
 30
-1379.051287506078
  0
VERTEX
  5
A1B
330
569
100
AcDbEntity
  8
OBJECT
100
AcDbVertex
100
AcDb2dVertex
 10
1523.500000738229
 20
3676.000004995836
 30
-1379.051287506078
  0
SEQEND
  5
A1C
330
569
100
AcDbEntity
  8
OBJECT
  0
POLYLINE
  5
56A
330
4CA
100
AcDbEntity
  8
OBJECT
100
AcDb2dPolyline
 66
     1
 10
0.0
 20
0.0
 30
-1379.051287506078
  0
VERTEX
  5
A1D
330
56A
100
AcDbEntity
  8
OBJECT
100
AcDbVertex
100
AcDb2dVertex
 10
1523.500000738229
 20
3609.000004995836
 30
-1379.051287506078
  0
VERTEX
  5
A1E
330
56A
100
AcDbEntity
  8
OBJECT
100
AcDbVertex
100
AcDb2dVertex
 10
1504.000000738229
 20
3609.000004995836
 30
-1379.051287506078
  0
VERTEX
  5
A1F
330
56A
100
AcDbEntity
  8
OBJECT
100
AcDbVertex
100
AcDb2dVertex
 10
1504.000000738229
 20
3676.000004995836
 30
-1379.051287506078
  0
VERTEX
  5
A20
330
56A
100
AcDbEntity
  8
OBJECT
100
AcDbVertex
100
AcDb2dVertex
 10
1523.500000738229
 20
3676.000004995836
 30
-1379.051287506078
  0
SEQEND
  5
A21
330
56A
100
AcDbEntity
  8
OBJECT
  0
POLYLINE
  5
56B
330
4CA
100
AcDbEntity
  8
OBJECT
100
AcDb2dPolyline
 66
     1
 10
0.0
 20
0.0
 30
-1379.051287506078
  0
VERTEX
  5
A22
330
56B
100
AcDbEntity
  8
OBJECT
100
AcDbVertex
100
AcDb2dVertex
 10
1523.500000738229
 20
3781.500004995834
 30
-1379.051287506078
  0
VERTEX
  5
A23
330
56B
100
AcDbEntity
  8
OBJECT
100
AcDbVertex
100
AcDb2dVertex
 10
1504.000000738229
 20
3781.500004995834
 30
-1379.051287506078
  0
VERTEX
  5
A24
330
56B
100
AcDbEntity
  8
OBJECT
100
AcDbVertex
100
AcDb2dVertex
 10
1504.000000738229
 20
3848.500004995834
 30
-1379.051287506078
  0
VERTEX
  5
A25
330
56B
100
AcDbEntity
  8
OBJECT
100
AcDbVertex
100
AcDb2dVertex
 10
1523.500000738229
 20
3848.500004995834
 30
-1379.051287506078
  0
SEQEND
  5
A26
330
56B
100
AcDbEntity
  8
OBJECT
  0
POLYLINE
  5
56C
330
4CA
100
AcDbEntity
  8
OBJECT
100
AcDb2dPolyline
 66
     1
 10
0.0
 20
0.0
 30
-1379.051287506078
  0
VERTEX
  5
A27
330
56C
100
AcDbEntity
  8
OBJECT
100
AcDbVertex
100
AcDb2dVertex
 10
1523.500000738229
 20
3783.000004995834
 30
-1379.051287506078
  0
VERTEX
  5
A28
330
56C
100
AcDbEntity
  8
OBJECT
100
AcDbVertex
100
AcDb2dVertex
 10
1504.000000738229
 20
3783.000004995834
 30
-1379.051287506078
  0
VERTEX
  5
A29
330
56C
100
AcDbEntity
  8
OBJECT
100
AcDbVertex
100
AcDb2dVertex
 10
1504.000000738229
 20
3764.500004995836
 30
-1379.051287506078
  0
VERTEX
  5
A2A
330
56C
100
AcDbEntity
  8
OBJECT
100
AcDbVertex
100
AcDb2dVertex
 10
1523.500000738229
 20
3764.500004995836
 30
-1379.051287506078
  0
SEQEND
  5
A2B
330
56C
100
AcDbEntity
  8
OBJECT
  0
POLYLINE
  5
56D
330
4CA
100
AcDbEntity
  8
OBJECT
100
AcDb2dPolyline
 66
     1
 10
0.0
 20
0.0
 30
-1379.051287506078
 70
     1
  0
VERTEX
  5
A2C
330
56D
100
AcDbEntity
  8
OBJECT
100
AcDbVertex
100
AcDb2dVertex
 10
1616.000000738229
 20
3557.500004995836
 30
-1379.051287506078
  0
VERTEX
  5
A2D
330
56D
100
AcDbEntity
  8
OBJECT
100
AcDbVertex
100
AcDb2dVertex
 10
1826.000000738229
 20
3557.500004995836
 30
-1379.051287506078
  0
VERTEX
  5
A2E
330
56D
100
AcDbEntity
  8
OBJECT
100
AcDbVertex
100
AcDb2dVertex
 10
1826.000000738229
 20
3523.500004995836
 30
-1379.051287506078
  0
VERTEX
  5
A2F
330
56D
100
AcDbEntity
  8
OBJECT
100
AcDbVertex
100
AcDb2dVertex
 10
1616.000000738229
 20
3523.500004995836
 30
-1379.051287506078
  0
SEQEND
  5
A30
330
56D
100
AcDbEntity
  8
OBJECT
  0
ARC
  5
56E
330
4CA
100
AcDbEntity
  8
OBJECT
100
AcDbCircle
 10
1583.500000738229
 20
3591.50000499584
 30
-1379.051287506078
 40
3.999999999999991
100
AcDbArc
 50
0.0
 51
90.0
  0
ARC
  5
56F
330
4CA
100
AcDbEntity
  8
OBJECT
100
AcDbCircle
 10
1583.500000738228
 20
3489.500004995842
 30
-1379.051287506078
 40
4.0
100
AcDbArc
 50
270.0
 51
0.0
  0
LINE
  5
570
330
4CA
100
AcDbEntity
  8
OBJECT
100
AcDbLine
 10
1587.500000738229
 20
3591.50000499584
 30
-1379.051287506078
 11
1587.500000738226
 21
3489.500004995842
 31
-1379.051287506078
  0
POLYLINE
  5
571
330
4CA
100
AcDbEntity
  8
OBJECT
100
AcDb2dPolyline
 66
     1
 10
0.0
 20
0.0
 30
-1379.051287506078
  0
VERTEX
  5
A31
330
571
100
AcDbEntity
  8
OBJECT
100
AcDbVertex
100
AcDb2dVertex
 10
1606.000000738229
 20
3565.500004995836
 30
-1379.051287506078
  0
VERTEX
  5
A32
330
571
100
AcDbEntity
  8
OBJECT
100
AcDbVertex
100
AcDb2dVertex
 10
1608.000000738229
 20
3565.500004995836
 30
-1379.051287506078
 42
-0.4142135623730952
  0
VERTEX
  5
A33
330
571
100
AcDbEntity
  8
OBJECT
100
AcDbVertex
100
AcDb2dVertex
 10
1616.000000738229
 20
3557.500004995836
 30
-1379.051287506078
  0
VERTEX
  5
A34
330
571
100
AcDbEntity
  8
OBJECT
100
AcDbVertex
100
AcDb2dVertex
 10
1616.000000738229
 20
3523.500004995836
 30
-1379.051287506078
 42
-0.4142135623730952
  0
VERTEX
  5
A35
330
571
100
AcDbEntity
  8
OBJECT
100
AcDbVertex
100
AcDb2dVertex
 10
1608.000000738229
 20
3515.500004995836
 30
-1379.051287506078
  0
VERTEX
  5
A36
330
571
100
AcDbEntity
  8
OBJECT
100
AcDbVertex
100
AcDb2dVertex
 10
1606.000000738229
 20
3515.500004995836
 30
-1379.051287506078
  0
SEQEND
  5
A37
330
571
100
AcDbEntity
  8
OBJECT
  0
POLYLINE
  5
572
330
4CA
100
AcDbEntity
  8
OBJECT
100
AcDb2dPolyline
 66
     1
 10
0.0
 20
0.0
 30
-1379.051287506078
  0
VERTEX
  5
A38
330
572
100
AcDbEntity
  8
OBJECT
100
AcDbVertex
100
AcDb2dVertex
 10
1836.000000738229
 20
3565.500004995836
 30
-1379.051287506078
  0
VERTEX
  5
A39
330
572
100
AcDbEntity
  8
OBJECT
100
AcDbVertex
100
AcDb2dVertex
 10
1834.000000738229
 20
3565.500004995836
 30
-1379.051287506078
 42
0.4142135623730952
  0
VERTEX
  5
A3A
330
572
100
AcDbEntity
  8
OBJECT
100
AcDbVertex
100
AcDb2dVertex
 10
1826.000000738229
 20
3557.500004995836
 30
-1379.051287506078
  0
VERTEX
  5
A3B
330
572
100
AcDbEntity
  8
OBJECT
100
AcDbVertex
100
AcDb2dVertex
 10
1826.000000738229
 20
3523.500004995836
 30
-1379.051287506078
 42
0.4142135623730952
  0
VERTEX
  5
A3C
330
572
100
AcDbEntity
  8
OBJECT
100
AcDbVertex
100
AcDb2dVertex
 10
1834.000000738229
 20
3515.500004995836
 30
-1379.051287506078
  0
VERTEX
  5
A3D
330
572
100
AcDbEntity
  8
OBJECT
100
AcDbVertex
100
AcDb2dVertex
 10
1836.000000738229
 20
3515.500004995836
 30
-1379.051287506078
  0
SEQEND
  5
A3E
330
572
100
AcDbEntity
  8
OBJECT
  0
POLYLINE
  5
573
330
4CA
100
AcDbEntity
  8
OBJECT
100
AcDb2dPolyline
 66
     1
 10
0.0
 20
0.0
 30
-1379.051287506078
  0
VERTEX
  5
A3F
330
573
100
AcDbEntity
  8
OBJECT
100
AcDbVertex
100
AcDb2dVertex
 10
1933.000000738229
 20
3565.500004995836
 30
-1379.051287506078
  0
VERTEX
  5
A40
330
573
100
AcDbEntity
  8
OBJECT
100
AcDbVertex
100
AcDb2dVertex
 10
1935.000000738229
 20
3565.500004995836
 30
-1379.051287506078
 42
-0.4142135623730952
  0
VERTEX
  5
A41
330
573
100
AcDbEntity
  8
OBJECT
100
AcDbVertex
100
AcDb2dVertex
 10
1943.000000738229
 20
3557.500004995836
 30
-1379.051287506078
  0
VERTEX
  5
A42
330
573
100
AcDbEntity
  8
OBJECT
100
AcDbVertex
100
AcDb2dVertex
 10
1943.000000738229
 20
3523.500004995836
 30
-1379.051287506078
 42
-0.4142135623730952
  0
VERTEX
  5
A43
330
573
100
AcDbEntity
  8
OBJECT
100
AcDbVertex
100
AcDb2dVertex
 10
1935.000000738229
 20
3515.500004995836
 30
-1379.051287506078
  0
VERTEX
  5
A44
330
573
100
AcDbEntity
  8
OBJECT
100
AcDbVertex
100
AcDb2dVertex
 10
1933.000000738229
 20
3515.500004995836
 30
-1379.051287506078
  0
SEQEND
  5
A45
330
573
100
AcDbEntity
  8
OBJECT
  0
POLYLINE
  5
574
330
4CA
100
AcDbEntity
  8
OBJECT
100
AcDb2dPolyline
 66
     1
 10
0.0
 20
0.0
 30
-1379.051287506078
  0
VERTEX
  5
A46
330
574
100
AcDbEntity
  8
OBJECT
100
AcDbVertex
100
AcDb2dVertex
 10
1581.000000738229
 20
3609.000004995836
 30
-1379.051287506078
  0
VERTEX
  5
A47
330
574
100
AcDbEntity
  8
OBJECT
100
AcDbVertex
100
AcDb2dVertex
 10
1581.000000738229
 20
3651.500004995833
 30
-1379.051287506078
  0
VERTEX
  5
A48
330
574
100
AcDbEntity
  8
OBJECT
100
AcDbVertex
100
AcDb2dVertex
 10
1606.000000738229
 20
3651.500004995833
 30
-1379.051287506078
  0
VERTEX
  5
A49
330
574
100
AcDbEntity
  8
OBJECT
100
AcDbVertex
100
AcDb2dVertex
 10
1606.000000738229
 20
3609.000004995836
 30
-1379.051287506078
  0
SEQEND
  5
A4A
330
574
100
AcDbEntity
  8
OBJECT
  0
POLYLINE
  5
575
330
4CA
100
AcDbEntity
  8
OBJECT
100
AcDb2dPolyline
 66
     1
 10
0.0
 20
0.0
 30
-1379.051287506078
  0
VERTEX
  5
A4B
330
575
100
AcDbEntity
  8
OBJECT
100
AcDbVertex
100
AcDb2dVertex
 10
1836.000000738229
 20
3609.000004995836
 30
-1379.051287506078
  0
VERTEX
  5
A4C
330
575
100
AcDbEntity
  8
OBJECT
100
AcDbVertex
100
AcDb2dVertex
 10
1836.000000738229
 20
3625.500004995835
 30
-1379.051287506078
  0
VERTEX
  5
A4D
330
575
100
AcDbEntity
  8
OBJECT
100
AcDbVertex
100
AcDb2dVertex
 10
1933.000000738229
 20
3625.500004995835
 30
-1379.051287506078
  0
VERTEX
  5
A4E
330
575
100
AcDbEntity
  8
OBJECT
100
AcDbVertex
100
AcDb2dVertex
 10
1933.000000738229
 20
3609.000004995836
 30
-1379.051287506078
  0
SEQEND
  5
A4F
330
575
100
AcDbEntity
  8
OBJECT
  0
POLYLINE
  5
576
330
4CA
100
AcDbEntity
  8
OBJECT
100
AcDb2dPolyline
 66
     1
 10
0.0
 20
0.0
 30
-1379.051287506078
  0
VERTEX
  5
A50
330
576
100
AcDbEntity
  8
OBJECT
100
AcDbVertex
100
AcDb2dVertex
 10
2163.000000738229
 20
3233.500004995834
 30
-1379.051287506078
  0
VERTEX
  5
A51
330
576
100
AcDbEntity
  8
OBJECT
100
AcDbVertex
100
AcDb2dVertex
 10
2161.000000738229
 20
3233.500004995834
 30
-1379.051287506078
 42
0.4142135623730952
  0
VERTEX
  5
A52
330
576
100
AcDbEntity
  8
OBJECT
100
AcDbVertex
100
AcDb2dVertex
 10
2153.000000738229
 20
3225.500004995835
 30
-1379.051287506078
  0
VERTEX
  5
A53
330
576
100
AcDbEntity
  8
OBJECT
100
AcDbVertex
100
AcDb2dVertex
 10
2153.000000738229
 20
3191.500004995834
 30
-1379.051287506078
 42
0.4142135623730952
  0
VERTEX
  5
A54
330
576
100
AcDbEntity
  8
OBJECT
100
AcDbVertex
100
AcDb2dVertex
 10
2161.000000738229
 20
3183.500004995833
 30
-1379.051287506078
  0
VERTEX
  5
A55
330
576
100
AcDbEntity
  8
OBJECT
100
AcDbVertex
100
AcDb2dVertex
 10
2163.000000738229
 20
3183.500004995833
 30
-1379.051287506078
  0
SEQEND
  5
A56
330
576
100
AcDbEntity
  8
OBJECT
  0
POLYLINE
  5
577
330
4CA
100
AcDbEntity
  8
OBJECT
100
AcDb2dPolyline
 66
     1
 10
0.0
 20
0.0
 30
-1379.051287506078
  0
VERTEX
  5
A57
330
577
100
AcDbEntity
  8
OBJECT
100
AcDbVertex
100
AcDb2dVertex
 10
2212.885622460567
 20
3485.500004995836
 30
-1379.051287506078
 42
0.2482675702533275
  0
VERTEX
  5
A58
330
577
100
AcDbEntity
  8
OBJECT
100
AcDbVertex
100
AcDb2dVertex
 10
2219.500000738229
 20
3482.000004995834
 30
-1379.051287506078
  0
VERTEX
  5
A59
330
577
100
AcDbEntity
  8
OBJECT
100
AcDbVertex
100
AcDb2dVertex
 10
2253.500000738229
 20
3482.000004995834
 30
-1379.051287506078
 42
0.2482675702533577
  0
VERTEX
  5
A5A
330
577
100
AcDbEntity
  8
OBJECT
100
AcDbVertex
100
AcDb2dVertex
 10
2260.114379015893
 20
3485.500004995836
 30
-1379.051287506078
 42
0.2482675702533577
  0
SEQEND
  5
A5B
330
577
100
AcDbEntity
  8
OBJECT
  0
LINE
  5
578
330
4CA
100
AcDbEntity
  8
OBJECT
 62
     0
100
AcDbLine
 10
2260.114379015891
 20
3485.500004995836
 30
-1379.051287506078
 11
2212.885622460566
 21
3485.500004995836
 31
-1379.051287506078
  0
REGION
  5
579
330
4CA
100
AcDbEntity
  8
OBJECT
100
AcDbModelerGeometry
 70
     1
  1
noi gi n o          
  1
=0;& {n {m {rn {rn |
  1
9@=0;&r3(;r>++-6= {rn {l {rn {o |
  1
3*2/ {k {rn {j {o |
  1
-:9@)+r3(;r>++-6= {rn {rn {n {o {i {h |
  1
-:9@)+r3(;r>++-6= {rn {rn {rn {m {i {h |
  1
,7:33 {g {rn {rn {f {m |
  1
-:961:2:1+ {rn o o o o mqkilgmljjifooomkk o o k o o o o o o o o |
  1
):-+:'@+:2/3>+: {rn l o n g |
  1
-:9@)+r3(;r>++-6= {rn {rn {rn {j {i {h |
  1
9><: {no {rn {nn {j {rn {nm 90-(>-; ;0*=3: 0*+ |
  1
99><:r3(;r>++-6= {rn {nl {rn {f |
  1
300/ {rn {nk {nj {f |
  1
/3>1:r,*-9><: {rn mmghqjooooohlgmlnk ljfjqjooookffjglim rnlhfqojnmghjoiohfm o o n n o o n V V V V |
  1
-:9@)+r3(;r>++-6= {rn {rn {no {f {i {rn |
  1
300/ {rn {ni {nh {f |
  1
<0:;8: {ng {nf {mo {rn {mn o {nn {rn |
  1
300/ {rn {rn {mm {f |
  1
<0:;8: {ml {nh {nh {rn {mk n {nk {rn |
  1
<0/>-r3(;r>++-6= {rn {rn {rn {nj |
  1
<0:;8: {mj {mi {nj {rn {mh o {nn {rn |
  1
<0:;8: {mg {nj {mf {rn {lo o {nn {rn |
  1
:;8: {ln {lm {ll {nj {lk o |
  1
<0:;8: {lj {mm {mm {rn {li n {ni {rn |
  1
<0/>-r3(;r>++-6= {rn {rn {rn {nh |
  1
:;8: {lh {lg {lg {nh {lf o |
  1
<0/>-r3(;r>++-6= {rn {rn {rn {nf |
  1
<0:;8: {ko {kn {nf {rn {km o {nn {rn |
  1
:;8: {kl {ll {kk {nf {kj o |
  1
<0/>-r3(;r>++-6= {rn {rn {rn {mo |
  1
<0:;8: {ki {mo {kh {rn {kg o {nn {rn |
  1
:;8: {kf {jo {lm {mo {jn o |
  1
:/>-r3(;r>++-6= {rn {rn {rn {mn |
  1
):-+:' {rn {mn {jm |
  1
):-+:' {rn {mn {jl |
  1
,+->687+r<*-): {rn mngjqjooooohlgmmfi ljfjqjooookffjglim rnlhfqojnmghjoiohfm rn o o V V |
  1
<0/>-r3(;r>++-6= {rn {rn {rn {mm |
  1
:;8: {jk {jj {jj {mm {ji o |
  1
:/>-r3(;r>++-6= {rn {rn {rn {mk |
  1
):-+:' {rn {mk {jh |
  1
:336/,:r<*-): {rn mmoiqjooooohlgmmhg ljnoqjooookffjglim rnlhfqojnmghjoiohfm o o n nk o o n V V |
  1
<0/>-r3(;r>++-6= {rn {rn {rn {mi |
  1
<0:;8: {jg {jf {mi {rn {io o {nn {rn |
  1
:;8: {in {kk {im {mi {il o |
  1
:/>-r3(;r>++-6= {rn {rn {rn {mh |
  1
):-+:' {rn {mh {ik |
  1
:336/,:r<*-): {rn mngjqjooooohlgmmfi ljfnqjooookffjglim rnlhfqojnmghjoiohfm o o n rmqgmgkmhnmkhkingfg mqgmgkmhnmkhkingfg o n V V |
  1
<0/>-r3(;r>++-6= {rn {rn {rn {mf |
  1
<0:;8: {ij {mf {jf {rn {ii o {nn {rn |
  1
:;8: {ih {ig {jo {mf {if o |
  1
:/>-r3(;r>++-6= {rn {rn {rn {lo |
  1
):-+:' {rn {kg {ho |
  1
:336/,:r<*-): {rn mmghqjooooohlgmlnk ljfnqjooookffjglim rnlhfqojnmghjoiohfm o o n mqgmgkmhnmkhkinion mqgmgkmhnmkhkinion o n V V |
  1
/061+ {rn mmghqjooooohlgmlnk ljfjqjooookffjglim rnlhfqojnmghjoiohfm |
  1
/061+ {rn mngjqjooooohlgmmfi ljfjqjooookffjglim rnlhfqojnmghjoiohfm |
  1
:/>-r3(;r>++-6= {rn {rn {rn {li |
  1
):-+:' {rn {li {hn |
  1
:336/,:r<*-): {rn mmiiqjooooohlgmlnk ljhoqjooookffjglim rnlhfqojnmghjoiohfm o o n rnk o o n V V |
  1
/061+ {rn mmmoqjooooohlgmmhg ljnoqjooookffjglim rnlhfqojnmghjoiohfm |
  1
<0/>-r3(;r>++-6= {rn {rn {rn {kn |
  1
<0:;8: {hm {kh {kn {rn {hl o {nn {rn |
  1
:;8: {hk {im {hj {kn {hi o |
  1
:/>-r3(;r>++-6= {rn {rn {rn {km |
  1
):-+:' {rn {km {hh |
  1
,+->687+r<*-): {rn mngnqjooooohlgmmfi lkgfqjooookffjglim rnlhfqojnmghjoiohfm o rn o V V |
  1
/061+ {rn mngnqjooooohlgmmfi ljfnqjooookffjglim rnlhfqojnmghjoiohfm |
  1
<0/>-r3(;r>++-6= {rn {rn {rn {kh |
  1
:;8: {hg {hf {ig {kh {go o |
  1
:/>-r3(;r>++-6= {rn {rn {rn {kg |
  1
):-+:' {rn {ii {gn |
  1
,+->687+r<*-): {rn mmfnqjooooohlgmlnk ljfnqjooookffjglim rnlhfqojnmghjoiohfm mqihkfgkknifhfmnmh:ronk n o V V |
  1
/061+ {rn mmfnqjooooohlgmlnk ljfnqjooookffjglim rnlhfqojnmghjoiohfm |
  1
/061+ {rn mmjmqjooooohlgmlnk ljhoqjooookffjglim rnlhfqojnmghjoiohfm |
  1
<0/>-r3(;r>++-6= {rn {rn {rn {jf |
  1
:;8: {gm {hj {hf {jf {gl o |
  1
:/>-r3(;r>++-6= {rn {rn {rn {io |
  1
):-+:' {rn {io {gk |
  1
:336/,:r<*-): {rn mngjqjooooohlgmmfi lkgfqjooookffjglim rnlhfqojnmghjoiohfm o o n rmqgmgkmhnmkhkingkn rmqgmgkmhnmkhkingkn o n V V |
  1
/061+ {rn mngnqjooooohlgmmfi lkgfqjooookffjglim rnlhfqojnmghjoiohfm |
  1
:/>-r3(;r>++-6= {rn {rn {rn {ii |
  1
):-+:' {rn {hl {gj |
  1
:336/,:r<*-): {rn mmghqjooooohlgmmhg lkgfqjooookffjglim rnlhfqojnmghjoiohfm o o n mqgmgkmhnmkhkingfg rmqgmgkmhnmkhkingfg o n V V |
  1
/061+ {rn mmfnqjooooohlgmmhg lkgfqjooookffjglim rnlhfqojnmghjoiohfm |
  1
:/>-r3(;r>++-6= {rn {rn {rn {hl |
  1
,+->687+r<*-): {rn mmghqjooooohlgmmhg lkgjqjooookffjglim rnlhfqojnmghjoiohfm n kqkjglohlinilmokoj:ronj o V V |
  1
/061+ {rn mngjqjooooohlgmmfi lkgjqjooookffjglim rnlhfqojnmghjoiohfm |
  1
/061+ {rn mmghqjooooohlgmmhg lkgjqjooookffjglim rnlhfqojnmghjoiohfm |
  0
LINE
  5
57A
330
4CA
100
AcDbEntity
  8
OBJECT
100
AcDbLine
 10
2287.50000073823
 20
3595.50000499584
 30
-1379.051287506078
 11
2185.500000738229
 21
3595.50000499584
 31
-1379.051287506078
  0
LINE
  5
57B
330
4CA
100
AcDbEntity
  8
OBJECT
100
AcDbLine
 10
2185.500000738231
 20
3485.500004995838
 30
-1379.051287506078
 11
2287.50000073823
 21
3485.500004995834
 31
-1379.051287506078
  0
ARC
  5
57C
330
4CA
100
AcDbEntity
  8
OBJECT
100
AcDbCircle
 10
2185.500000738229
 20
3591.50000499584
 30
-1379.051287506078
 40
3.999999999999991
100
AcDbArc
 50
90.0
 51
180.0
  0
ARC
  5
57D
330
4CA
100
AcDbEntity
  8
OBJECT
100
AcDbCircle
 10
2185.500000738231
 20
3489.500004995842
 30
-1379.051287506078
 40
4.0
100
AcDbArc
 50
180.0
 51
270.0
  0
LINE
  5
57E
330
4CA
100
AcDbEntity
  8
OBJECT
100
AcDbLine
 10
2181.500000738229
 20
3591.50000499584
 30
-1379.051287506078
 11
2181.500000738231
 21
3489.500004995842
 31
-1379.051287506078
  0
POLYLINE
  5
57F
330
4CA
100
AcDbEntity
  8
OBJECT
100
AcDb2dPolyline
 66
     1
 10
0.0
 20
0.0
 30
-1379.051287506078
  0
VERTEX
  5
A5C
330
57F
100
AcDbEntity
  8
OBJECT
100
AcDbVertex
100
AcDb2dVertex
 10
2163.000000738229
 20
3565.500004995836
 30
-1379.051287506078
  0
VERTEX
  5
A5D
330
57F
100
AcDbEntity
  8
OBJECT
100
AcDbVertex
100
AcDb2dVertex
 10
2161.000000738229
 20
3565.500004995836
 30
-1379.051287506078
 42
0.4142135623730952
  0
VERTEX
  5
A5E
330
57F
100
AcDbEntity
  8
OBJECT
100
AcDbVertex
100
AcDb2dVertex
 10
2153.000000738229
 20
3557.500004995836
 30
-1379.051287506078
  0
VERTEX
  5
A5F
330
57F
100
AcDbEntity
  8
OBJECT
100
AcDbVertex
100
AcDb2dVertex
 10
2153.000000738229
 20
3523.500004995836
 30
-1379.051287506078
 42
0.4142135623730952
  0
VERTEX
  5
A60
330
57F
100
AcDbEntity
  8
OBJECT
100
AcDbVertex
100
AcDb2dVertex
 10
2161.000000738229
 20
3515.500004995836
 30
-1379.051287506078
  0
VERTEX
  5
A61
330
57F
100
AcDbEntity
  8
OBJECT
100
AcDbVertex
100
AcDb2dVertex
 10
2163.000000738229
 20
3515.500004995836
 30
-1379.051287506078
  0
SEQEND
  5
A62
330
57F
100
AcDbEntity
  8
OBJECT
  0
LINE
  5
580
330
4CA
100
AcDbEntity
  8
OBJECT
100
AcDbLine
 10
2219.500000738229
 20
3482.000004995834
 30
-1379.051287506078
 11
2253.500000738229
 21
3482.000004995834
 31
-1379.051287506078
  0
ARC
  5
581
330
4CA
100
AcDbEntity
  8
OBJECT
100
AcDbCircle
 10
2287.500000738228
 20
3591.50000499584
 30
-1379.051287506078
 40
4.0
100
AcDbArc
 50
0.0
 51
90.0
  0
ARC
  5
582
330
4CA
100
AcDbEntity
  8
OBJECT
100
AcDbCircle
 10
2287.50000073823
 20
3489.500004995834
 30
-1379.051287506078
 40
3.999999999999958
100
AcDbArc
 50
270.0
 51
0.0
  0
LINE
  5
583
330
4CA
100
AcDbEntity
  8
OBJECT
100
AcDbLine
 10
2291.500000738229
 20
3489.500004995834
 30
-1379.051287506078
 11
2291.500000738229
 21
3591.50000499584
 31
-1379.051287506078
  0
POLYLINE
  5
584
330
4CA
100
AcDbEntity
  8
OBJECT
100
AcDb2dPolyline
 66
     1
 10
0.0
 20
0.0
 30
-1379.051287506078
  0
VERTEX
  5
A63
330
584
100
AcDbEntity
  8
OBJECT
100
AcDbVertex
100
AcDb2dVertex
 10
2291.500000738229
 20
3564.114383273496
 30
-1379.051287506078
 42
-0.2482675702532598
  0
VERTEX
  5
A64
330
584
100
AcDbEntity
  8
OBJECT
100
AcDbVertex
100
AcDb2dVertex
 10
2295.000000738229
 20
3557.500004995834
 30
-1379.051287506078
  0
VERTEX
  5
A65
330
584
100
AcDbEntity
  8
OBJECT
100
AcDbVertex
100
AcDb2dVertex
 10
2295.000000738229
 20
3523.500004995833
 30
-1379.051287506078
 42
-0.2482675702532655
  0
VERTEX
  5
A66
330
584
100
AcDbEntity
  8
OBJECT
100
AcDbVertex
100
AcDb2dVertex
 10
2291.500000738229
 20
3516.885626718173
 30
-1379.051287506078
 42
-0.2482675702532655
  0
SEQEND
  5
A67
330
584
100
AcDbEntity
  8
OBJECT
  0
LINE
  5
585
330
4CA
100
AcDbEntity
  8
OBJECT
100
AcDbLine
 10
2295.000000738229
 20
3523.500004995833
 30
-1379.051287506078
 11
2295.000000738229
 21
3557.500004995834
 31
-1379.051287506078
  0
POLYLINE
  5
586
330
4CA
100
AcDbEntity
  8
OBJECT
100
AcDb2dPolyline
 66
     1
 10
0.0
 20
0.0
 30
-1379.051287506078
  0
VERTEX
  5
A68
330
586
100
AcDbEntity
  8
OBJECT
100
AcDbVertex
100
AcDb2dVertex
 10
2163.000000738229
 20
3609.000004995836
 30
-1379.051287506078
  0
VERTEX
  5
A69
330
586
100
AcDbEntity
  8
OBJECT
100
AcDbVertex
100
AcDb2dVertex
 10
2163.000000738229
 20
3651.500004995833
 30
-1379.051287506078
  0
VERTEX
  5
A6A
330
586
100
AcDbEntity
  8
OBJECT
100
AcDbVertex
100
AcDb2dVertex
 10
2188.000000738229
 20
3651.500004995833
 30
-1379.051287506078
  0
VERTEX
  5
A6B
330
586
100
AcDbEntity
  8
OBJECT
100
AcDbVertex
100
AcDb2dVertex
 10
2188.000000738229
 20
3609.000004995836
 30
-1379.051287506078
  0
SEQEND
  5
A6C
330
586
100
AcDbEntity
  8
OBJECT
  0
POLYLINE
  5
587
330
4CA
100
AcDbEntity
  8
OBJECT
100
AcDb2dPolyline
 66
     1
 10
0.0
 20
0.0
 30
-1379.051287506078
  0
VERTEX
  5
A6D
330
587
100
AcDbEntity
  8
OBJECT
100
AcDbVertex
100
AcDb2dVertex
 10
1523.500000738229
 20
4111.000004995831
 30
-1379.051287506078
  0
VERTEX
  5
A6E
330
587
100
AcDbEntity
  8
OBJECT
100
AcDbVertex
100
AcDb2dVertex
 10
1504.000000738229
 20
4111.000004995831
 30
-1379.051287506078
  0
VERTEX
  5
A6F
330
587
100
AcDbEntity
  8
OBJECT
100
AcDbVertex
100
AcDb2dVertex
 10
1504.000000738229
 20
4131.000004995832
 30
-1379.051287506078
  0
VERTEX
  5
A70
330
587
100
AcDbEntity
  8
OBJECT
100
AcDbVertex
100
AcDb2dVertex
 10
2183.563509065132
 20
4131.000004995832
 30
-1379.051287506078
  0
SEQEND
  5
A71
330
587
100
AcDbEntity
  8
OBJECT
  0
LINE
  5
588
330
4CA
100
AcDbEntity
  8
OBJECT
100
AcDbLine
 10
1591.000000738229
 20
4202.500004995836
 30
-1379.051287506078
 11
2178.000000738229
 21
4202.500004995836
 31
-1379.051287506078
  0
LINE
  5
589
330
4CA
100
AcDbEntity
  8
OBJECT
100
AcDbLine
 10
2178.000000738229
 20
4168.500004995836
 30
-1379.051287506078
 11
1591.000000738229
 21
4168.500004995836
 31
-1379.051287506078
  0
LINE
  5
58A
330
4CA
100
AcDbEntity
  8
OBJECT
100
AcDbLine
 10
1481.500000738277
 20
4240.500004995902
 30
-1379.051287506078
 11
1583.500000738276
 21
4240.500004995902
 31
-1379.051287506078
  0
LINE
  5
58B
330
4CA
100
AcDbEntity
  8
OBJECT
100
AcDbLine
 10
1583.500000738275
 20
4130.5000049959
 30
-1379.051287506078
 11
1481.500000738277
 21
4130.500004995896
 31
-1379.051287506078
  0
REGION
  5
58C
330
4CA
100
AcDbEntity
  8
OBJECT
100
AcDbModelerGeometry
 70
     1
  1
noi gi n o          
  1
=0;& {n {m {rn {rn |
  1
9@=0;&r3(;r>++-6= {rn {l {rn {o |
  1
3*2/ {k {rn {j {o |
  1
-:9@)+r3(;r>++-6= {rn {rn {n {o {i {h |
  1
-:9@)+r3(;r>++-6= {rn {rn {rn {m {i {h |
  1
,7:33 {g {rn {rn {f {m |
  1
-:961:2:1+ {rn o o o o mqkilgmljjifooomkk o o k o o o o o o o o |
  1
):-+:'@+:2/3>+: {rn l o n g |
  1
-:9@)+r3(;r>++-6= {rn {rn {rn {j {i {h |
  1
9><: {no {rn {nn {j {rn {nm 90-(>-; ;0*=3: 0*+ |
  1
99><:r3(;r>++-6= {rn {nl {rn {f |
  1
300/ {rn {nk {nj {f |
  1
/3>1:r,*-9><: {rn njglqjooooohlgmllm kmkoqjooookffjglim rnlhfqojnmghjoiohfm o o n n o o n V V V V |
  1
-:9@)+r3(;r>++-6= {rn {rn {no {f {i {rn |
  1
300/ {rn {ni {nh {f |
  1
<0:;8: {ng {nf {mo {rn {mn o {nn {rn |
  1
300/ {rn {rn {mm {f |
  1
<0:;8: {ml {nh {nh {rn {mk n {nk {rn |
  1
<0/>-r3(;r>++-6= {rn {rn {rn {nj |
  1
<0:;8: {mj {mi {nj {rn {mh o {nn {rn |
  1
<0:;8: {mg {nj {mf {rn {lo o {nn {rn |
  1
:;8: {ln {lm {ll {nj {lk o |
  1
<0:;8: {lj {mm {mm {rn {li n {ni {rn |
  1
<0/>-r3(;r>++-6= {rn {rn {rn {nh |
  1
:;8: {lh {lg {lg {nh {lf o |
  1
<0/>-r3(;r>++-6= {rn {rn {rn {nf |
  1
<0:;8: {ko {kn {nf {rn {km o {nn {rn |
  1
:;8: {kl {ll {kk {nf {kj o |
  1
<0/>-r3(;r>++-6= {rn {rn {rn {mo |
  1
<0:;8: {ki {mo {kh {rn {kg o {nn {rn |
  1
:;8: {kf {jo {lm {mo {jn o |
  1
:/>-r3(;r>++-6= {rn {rn {rn {mn |
  1
):-+:' {rn {mn {jm |
  1
):-+:' {rn {mn {jl |
  1
,+->687+r<*-): {rn nkgnqjooooohlgmlnk kmkoqjooookffjglim rnlhfqojnmghjoiohfm rn o o V V |
  1
<0/>-r3(;r>++-6= {rn {rn {rn {mm |
  1
:;8: {jk {jj {jj {mm {ji o |
  1
:/>-r3(;r>++-6= {rn {rn {rn {mk |
  1
):-+:' {rn {mk {jh |
  1
:336/,:r<*-): {rn njomqjooooohlgmmfi knjjqjooookffjglim rnlhfqojnmghjoiohfm o o n nk o o n V V |
  1
<0/>-r3(;r>++-6= {rn {rn {rn {mi |
  1
<0:;8: {jg {jf {mi {rn {io o {nn {rn |
  1
:;8: {in {kk {im {mi {il o |
  1
:/>-r3(;r>++-6= {rn {rn {rn {mh |
  1
):-+:' {rn {mh {ik |
  1
:336/,:r<*-): {rn nkgnqjooooohlgmlnk kmliqjooookffjglim rnlhfqojnmghjoiohfm o o n rmqgmgkmhnmkhkingfg mqgmgkmhnmkhkingfg o n V V |
  1
<0/>-r3(;r>++-6= {rn {rn {rn {mf |
  1
<0:;8: {ij {mf {jf {rn {ii o {nn {rn |
  1
:;8: {ih {ig {jo {mf {if o |
  1
:/>-r3(;r>++-6= {rn {rn {rn {lo |
  1
):-+:' {rn {kg {ho |
  1
:336/,:r<*-): {rn njglqjooooohlgmllm kmliqjooookffjglim rnlhfqojnmghjoiohfm o o n mqgmgkmhnmkhkinion mqgmgkmhnmkhkinion o n V V |
  1
/061+ {rn njglqjooooohlgmllm kmkoqjooookffjglim rnlhfqojnmghjoiohfm |
  1
/061+ {rn nkgnqjooooohlgmlnk kmkoqjooookffjglim rnlhfqojnmghjoiohfm |
  1
:/>-r3(;r>++-6= {rn {rn {rn {li |
  1
):-+:' {rn {li {hn |
  1
:336/,:r<*-): {rn njimqjooooohlgmllm kmnjqjooookffjglim rnlhfqojnmghjoiohfm o o n rnk o o n V V |
  1
/061+ {rn njniqjooooohlgmmfi knjjqjooookffjglim rnlhfqojnmghjoiohfm |
  1
<0/>-r3(;r>++-6= {rn {rn {rn {kn |
  1
<0:;8: {hm {kh {kn {rn {hl o {nn {rn |
  1
:;8: {hk {im {hj {kn {hi o |
  1
:/>-r3(;r>++-6= {rn {rn {rn {km |
  1
):-+:' {rn {km {hh |
  1
,+->687+r<*-): {rn nkhhqjooooohlgmlnk knlkqjooookffjglim rnlhfqojnmghjoiohfm o rn o V V |
  1
/061+ {rn nkhhqjooooohlgmlnk kmliqjooookffjglim rnlhfqojnmghjoiohfm |
  1
<0/>-r3(;r>++-6= {rn {rn {rn {kh |
  1
:;8: {hg {hf {ig {kh {go o |
  1
:/>-r3(;r>++-6= {rn {rn {rn {kg |
  1
):-+:' {rn {ii {gn |
  1
,+->687+r<*-): {rn njghqjooooohlgmllm kmliqjooookffjglim rnlhfqojnmghjoiohfm mqihkfgkknifhfmnmh:ronk n o V V |
  1
/061+ {rn njghqjooooohlgmllm kmliqjooookffjglim rnlhfqojnmghjoiohfm |
  1
/061+ {rn njkgqjooooohlgmllm kmnjqjooookffjglim rnlhfqojnmghjoiohfm |
  1
<0/>-r3(;r>++-6= {rn {rn {rn {jf |
  1
:;8: {gm {hj {hf {jf {gl o |
  1
:/>-r3(;r>++-6= {rn {rn {rn {io |
  1
):-+:' {rn {io {gk |
  1
:336/,:r<*-): {rn nkgnqjooooohlgmlnk knlkqjooookffjglim rnlhfqojnmghjoiohfm o o n rmqgmgkmhnmkhkingkn rmqgmgkmhnmkhkingkn o n V V |
  1
/061+ {rn nkhhqjooooohlgmlnk knlkqjooookffjglim rnlhfqojnmghjoiohfm |
  1
:/>-r3(;r>++-6= {rn {rn {rn {ii |
  1
):-+:' {rn {hl {gj |
  1
:336/,:r<*-): {rn njglqjooooohlgmmfi knlkqjooookffjglim rnlhfqojnmghjoiohfm o o n mqgmgkmhnmkhkingfg rmqgmgkmhnmkhkingfg o n V V |
  1
/061+ {rn njghqjooooohlgmmfi knlkqjooookffjglim rnlhfqojnmghjoiohfm |
  1
:/>-r3(;r>++-6= {rn {rn {rn {hl |
  1
,+->687+r<*-): {rn njglqjooooohlgmmfi knloqjooookffjglim rnlhfqojnmghjoiohfm n kqkjglohlinilmokoj:ronj o V V |
  1
/061+ {rn nkgnqjooooohlgmlnk knloqjooookffjglim rnlhfqojnmghjoiohfm |
  1
/061+ {rn njglqjooooohlgmmfi knloqjooookffjglim rnlhfqojnmghjoiohfm |
  0
CIRCLE
  5
58D
330
4CA
100
AcDbEntity
  8
OBJECT
100
AcDbCircle
 10
1562.500000738276
 20
4215.500004995901
 30
-1379.051287506078
 40
14.0
  0
POLYLINE
  5
58E
330
4CA
100
AcDbEntity
  8
OBJECT
100
AcDb2dPolyline
 66
     1
 10
0.0
 20
0.0
 30
-1379.051287506079
  0
VERTEX
  5
A72
330
58E
100
AcDbEntity
  8
OBJECT
100
AcDbVertex
100
AcDb2dVertex
 10
1523.500000738229
 20
4044.000004995834
 30
-1379.051287506079
  0
VERTEX
  5
A73
330
58E
100
AcDbEntity
  8
OBJECT
100
AcDbVertex
100
AcDb2dVertex
 10
1504.000000738229
 20
4044.000004995834
 30
-1379.051287506079
  0
VERTEX
  5
A74
330
58E
100
AcDbEntity
  8
OBJECT
100
AcDbVertex
100
AcDb2dVertex
 10
1504.000000738229
 20
4111.000004995833
 30
-1379.051287506079
  0
VERTEX
  5
A75
330
58E
100
AcDbEntity
  8
OBJECT
100
AcDbVertex
100
AcDb2dVertex
 10
1523.500000738229
 20
4111.000004995833
 30
-1379.051287506079
  0
SEQEND
  5
A76
330
58E
100
AcDbEntity
  8
OBJECT
  0
POLYLINE
  5
58F
330
4CA
100
AcDbEntity
  8
OBJECT
100
AcDb2dPolyline
 66
     1
 10
0.0
 20
0.0
 30
-1379.051287506078
  0
VERTEX
  5
A77
330
58F
100
AcDbEntity
  8
OBJECT
100
AcDbVertex
100
AcDb2dVertex
 10
1523.500000738229
 20
3957.000004995833
 30
-1379.051287506078
  0
VERTEX
  5
A78
330
58F
100
AcDbEntity
  8
OBJECT
100
AcDbVertex
100
AcDb2dVertex
 10
1504.000000738229
 20
3957.000004995833
 30
-1379.051287506078
  0
VERTEX
  5
A79
330
58F
100
AcDbEntity
  8
OBJECT
100
AcDbVertex
100
AcDb2dVertex
 10
1504.000000738229
 20
4024.000004995833
 30
-1379.051287506078
  0
VERTEX
  5
A7A
330
58F
100
AcDbEntity
  8
OBJECT
100
AcDbVertex
100
AcDb2dVertex
 10
1523.500000738229
 20
4024.000004995833
 30
-1379.051287506078
  0
SEQEND
  5
A7B
330
58F
100
AcDbEntity
  8
OBJECT
  0
POLYLINE
  5
590
330
4CA
100
AcDbEntity
  8
OBJECT
100
AcDb2dPolyline
 66
     1
 10
0.0
 20
0.0
 30
-1379.051287506078
  0
VERTEX
  5
A7C
330
590
100
AcDbEntity
  8
OBJECT
100
AcDbVertex
100
AcDb2dVertex
 10
1523.500000738229
 20
3870.000004995834
 30
-1379.051287506078
  0
VERTEX
  5
A7D
330
590
100
AcDbEntity
  8
OBJECT
100
AcDbVertex
100
AcDb2dVertex
 10
1504.000000738229
 20
3870.000004995834
 30
-1379.051287506078
  0
VERTEX
  5
A7E
330
590
100
AcDbEntity
  8
OBJECT
100
AcDbVertex
100
AcDb2dVertex
 10
1504.000000738229
 20
3937.000004995834
 30
-1379.051287506078
  0
VERTEX
  5
A7F
330
590
100
AcDbEntity
  8
OBJECT
100
AcDbVertex
100
AcDb2dVertex
 10
1523.500000738229
 20
3937.000004995834
 30
-1379.051287506078
  0
SEQEND
  5
A80
330
590
100
AcDbEntity
  8
OBJECT
  0
POLYLINE
  5
591
330
4CA
100
AcDbEntity
  8
OBJECT
100
AcDb2dPolyline
 66
     1
 10
0.0
 20
0.0
 30
-1379.051287506078
  0
VERTEX
  5
A81
330
591
100
AcDbEntity
  8
OBJECT
100
AcDbVertex
100
AcDb2dVertex
 10
1523.500000738229
 20
3955.500004995832
 30
-1379.051287506078
  0
VERTEX
  5
A82
330
591
100
AcDbEntity
  8
OBJECT
100
AcDbVertex
100
AcDb2dVertex
 10
1504.000000738229
 20
3955.500004995832
 30
-1379.051287506078
  0
VERTEX
  5
A83
330
591
100
AcDbEntity
  8
OBJECT
100
AcDbVertex
100
AcDb2dVertex
 10
1504.000000738229
 20
3937.000004995834
 30
-1379.051287506078
  0
VERTEX
  5
A84
330
591
100
AcDbEntity
  8
OBJECT
100
AcDbVertex
100
AcDb2dVertex
 10
1523.500000738229
 20
3937.000004995834
 30
-1379.051287506078
  0
SEQEND
  5
A85
330
591
100
AcDbEntity
  8
OBJECT
  0
POLYLINE
  5
592
330
4CA
100
AcDbEntity
  8
OBJECT
100
AcDb2dPolyline
 66
     1
 10
0.0
 20
0.0
 30
-1379.051287506079
  0
VERTEX
  5
A86
330
592
100
AcDbEntity
  8
OBJECT
100
AcDbVertex
100
AcDb2dVertex
 10
1523.500000738229
 20
4042.500004995832
 30
-1379.051287506079
  0
VERTEX
  5
A87
330
592
100
AcDbEntity
  8
OBJECT
100
AcDbVertex
100
AcDb2dVertex
 10
1504.000000738229
 20
4042.500004995832
 30
-1379.051287506079
  0
VERTEX
  5
A88
330
592
100
AcDbEntity
  8
OBJECT
100
AcDbVertex
100
AcDb2dVertex
 10
1504.000000738229
 20
4024.000004995833
 30
-1379.051287506079
  0
VERTEX
  5
A89
330
592
100
AcDbEntity
  8
OBJECT
100
AcDbVertex
100
AcDb2dVertex
 10
1523.500000738229
 20
4024.000004995833
 30
-1379.051287506079
  0
SEQEND
  5
A8A
330
592
100
AcDbEntity
  8
OBJECT
  0
LINE
  5
593
330
4CA
100
AcDbEntity
  8
OBJECT
100
AcDbLine
 10
1477.500000738277
 20
4134.500004995896
 30
-1379.051287506078
 11
1477.500000738277
 21
4236.5000049959
 31
-1379.051287506078
  0
CIRCLE
  5
594
330
4CA
100
AcDbEntity
  8
OBJECT
100
AcDbCircle
 10
1502.500000738276
 20
4155.500004995894
 30
-1379.051287506078
 40
14.0
  0
ARC
  5
595
330
4CA
100
AcDbEntity
  8
OBJECT
100
AcDbCircle
 10
1481.500000738277
 20
4134.500004995896
 30
-1379.051287506078
 40
3.999999999999958
100
AcDbArc
 50
180.0
 51
270.0
  0
ARC
  5
596
330
4CA
100
AcDbEntity
  8
OBJECT
100
AcDbCircle
 10
1481.500000738278
 20
4236.5000049959
 30
-1379.051287506078
 40
4.0
100
AcDbArc
 50
90.0
 51
180.0
  0
LINE
  5
597
330
4CA
100
AcDbEntity
  8
OBJECT
100
AcDbLine
 10
1587.500000738276
 20
4236.5000049959
 30
-1379.051287506078
 11
1587.500000738275
 21
4134.500004995902
 31
-1379.051287506078
  0
ARC
  5
598
330
4CA
100
AcDbEntity
  8
OBJECT
100
AcDbCircle
 10
1583.500000738275
 20
4134.500004995902
 30
-1379.051287506078
 40
4.0
100
AcDbArc
 50
270.0
 51
0.0
  0
LINE
  5
599
330
4CA
100
AcDbEntity
  8
OBJECT
100
AcDbLine
 10
1591.000000738229
 20
4168.500004995836
 30
-1379.051287506078
 11
1591.000000738229
 21
4202.500004995836
 31
-1379.051287506078
  0
POLYLINE
  5
59A
330
4CA
100
AcDbEntity
  8
OBJECT
100
AcDb2dPolyline
 66
     1
 10
0.0
 20
0.0
 30
-1379.051287506078
  0
VERTEX
  5
A8B
330
59A
100
AcDbEntity
  8
OBJECT
100
AcDbVertex
100
AcDb2dVertex
 10
1587.500000738278
 20
4161.885626718208
 30
-1379.051287506078
 42
0.2482675702512566
  0
VERTEX
  5
A8C
330
59A
100
AcDbEntity
  8
OBJECT
100
AcDbVertex
100
AcDb2dVertex
 10
1591.000000738229
 20
4168.500004995836
 30
-1379.051287506078
  0
VERTEX
  5
A8D
330
59A
100
AcDbEntity
  8
OBJECT
100
AcDbVertex
100
AcDb2dVertex
 10
1591.000000738229
 20
4202.500004995836
 30
-1379.051287506078
  0
VERTEX
  5
A8E
330
59A
100
AcDbEntity
  8
OBJECT
100
AcDbVertex
100
AcDb2dVertex
 10
1591.000000738229
 20
4202.500004995836
 30
-1379.051287506078
 42
0.2482675702512566
  0
VERTEX
  5
A8F
330
59A
100
AcDbEntity
  8
OBJECT
100
AcDbVertex
100
AcDb2dVertex
 10
1587.500000738278
 20
4209.114383273464
 30
-1379.051287506078
  0
SEQEND
  5
A90
330
59A
100
AcDbEntity
  8
OBJECT
  0
ARC
  5
59B
330
4CA
100
AcDbEntity
  8
OBJECT
100
AcDbCircle
 10
1583.500000738276
 20
4236.5000049959
 30
-1379.051287506078
 40
3.999999999999991
100
AcDbArc
 50
0.0
 51
90.0
  0
CIRCLE
  5
59C
330
4CA
100
AcDbEntity
  8
OBJECT
100
AcDbCircle
 10
2421.000000738229
 20
4185.500004995836
 30
-1380.051287506079
 40
14.0
  0
LINE
  5
59D
330
4CA
100
AcDbEntity
  8
OBJECT
100
AcDbLine
 10
2287.500000738182
 20
4240.500004995902
 30
-1379.051287506078
 11
2185.500000738182
 21
4240.500004995902
 31
-1379.051287506078
  0
LINE
  5
59E
330
4CA
100
AcDbEntity
  8
OBJECT
100
AcDbLine
 10
2185.500000738184
 20
4130.5000049959
 30
-1379.051287506078
 11
2287.500000738182
 21
4130.500004995896
 31
-1379.051287506078
  0
REGION
  5
59F
330
4CA
100
AcDbEntity
  8
OBJECT
100
AcDbModelerGeometry
 70
     1
  1
noi gi n o          
  1
=0;& {n {m {rn {rn |
  1
9@=0;&r3(;r>++-6= {rn {l {rn {o |
  1
3*2/ {k {rn {j {o |
  1
-:9@)+r3(;r>++-6= {rn {rn {n {o {i {h |
  1
-:9@)+r3(;r>++-6= {rn {rn {rn {m {i {h |
  1
,7:33 {g {rn {rn {f {m |
  1
-:961:2:1+ {rn o o o o mqkilgmljjifooomkk o o k o o o o o o o o |
  1
):-+:'@+:2/3>+: {rn l o n g |
  1
-:9@)+r3(;r>++-6= {rn {rn {rn {j {i {h |
  1
9><: {no {rn {nn {j {rn {nm 90-(>-; ;0*=3: 0*+ |
  1
99><:r3(;r>++-6= {rn {nl {rn {f |
  1
300/ {rn {nk {nj {f |
  1
/3>1:r,*-9><: {rn mmghqjooooohlgmlnk kmkoqjooookffjglim rnlhfqojnmghjoiohfm o o n n o o n V V V V |
  1
-:9@)+r3(;r>++-6= {rn {rn {no {f {i {rn |
  1
300/ {rn {ni {nh {f |
  1
<0:;8: {ng {nf {mo {rn {mn o {nn {rn |
  1
300/ {rn {rn {mm {f |
  1
<0:;8: {ml {nh {nh {rn {mk n {nk {rn |
  1
<0/>-r3(;r>++-6= {rn {rn {rn {nj |
  1
<0:;8: {mj {mi {nj {rn {mh o {nn {rn |
  1
<0:;8: {mg {nj {mf {rn {lo o {nn {rn |
  1
:;8: {ln {lm {ll {nj {lk o |
  1
<0:;8: {lj {mm {mm {rn {li n {ni {rn |
  1
<0/>-r3(;r>++-6= {rn {rn {rn {nh |
  1
:;8: {lh {lg {lg {nh {lf o |
  1
<0/>-r3(;r>++-6= {rn {rn {rn {nf |
  1
<0:;8: {ko {kn {nf {rn {km o {nn {rn |
  1
:;8: {kl {ll {kk {nf {kj o |
  1
<0/>-r3(;r>++-6= {rn {rn {rn {mo |
  1
<0:;8: {ki {mo {kh {rn {kg o {nn {rn |
  1
:;8: {kf {jo {lm {mo {jn o |
  1
:/>-r3(;r>++-6= {rn {rn {rn {mn |
  1
):-+:' {rn {mn {jm |
  1
):-+:' {rn {mn {jl |
  1
,+->687+r<*-): {rn mngjqjooooohlgmmfi kmkoqjooookffjglim rnlhfqojnmghjoiohfm rn o o V V |
  1
<0/>-r3(;r>++-6= {rn {rn {rn {mm |
  1
:;8: {jk {jj {jj {mm {ji o |
  1
:/>-r3(;r>++-6= {rn {rn {rn {mk |
  1
):-+:' {rn {mk {jh |
  1
:336/,:r<*-): {rn mmoiqjooooohlgmmhg knjjqjooookffjglim rnlhfqojnmghjoiohfm o o n nk o o n V V |
  1
<0/>-r3(;r>++-6= {rn {rn {rn {mi |
  1
<0:;8: {jg {jf {mi {rn {io o {nn {rn |
  1
:;8: {in {kk {im {mi {il o |
  1
:/>-r3(;r>++-6= {rn {rn {rn {mh |
  1
):-+:' {rn {mh {ik |
  1
:336/,:r<*-): {rn mngjqjooooohlgmmfi kmliqjooookffjglim rnlhfqojnmghjoiohfm o o n rmqgmgkmhnmkhkingfg mqgmgkmhnmkhkingfg o n V V |
  1
<0/>-r3(;r>++-6= {rn {rn {rn {mf |
  1
<0:;8: {ij {mf {jf {rn {ii o {nn {rn |
  1
:;8: {ih {ig {jo {mf {if o |
  1
:/>-r3(;r>++-6= {rn {rn {rn {lo |
  1
):-+:' {rn {kg {ho |
  1
:336/,:r<*-): {rn mmghqjooooohlgmlnk kmliqjooookffjglim rnlhfqojnmghjoiohfm o o n mqgmgkmhnmkhkinion mqgmgkmhnmkhkinion o n V V |
  1
/061+ {rn mmghqjooooohlgmlnk kmkoqjooookffjglim rnlhfqojnmghjoiohfm |
  1
/061+ {rn mngjqjooooohlgmmfi kmkoqjooookffjglim rnlhfqojnmghjoiohfm |
  1
:/>-r3(;r>++-6= {rn {rn {rn {li |
  1
):-+:' {rn {li {hn |
  1
:336/,:r<*-): {rn mmiiqjooooohlgmlnk kmnjqjooookffjglim rnlhfqojnmghjoiohfm o o n rnk o o n V V |
  1
/061+ {rn mmmoqjooooohlgmmhg knjjqjooookffjglim rnlhfqojnmghjoiohfm |
  1
<0/>-r3(;r>++-6= {rn {rn {rn {kn |
  1
<0:;8: {hm {kh {kn {rn {hl o {nn {rn |
  1
:;8: {hk {im {hj {kn {hi o |
  1
:/>-r3(;r>++-6= {rn {rn {rn {km |
  1
):-+:' {rn {km {hh |
  1
,+->687+r<*-): {rn mngnqjooooohlgmmfi knlkqjooookffjglim rnlhfqojnmghjoiohfm o rn o V V |
  1
/061+ {rn mngnqjooooohlgmmfi kmliqjooookffjglim rnlhfqojnmghjoiohfm |
  1
<0/>-r3(;r>++-6= {rn {rn {rn {kh |
  1
:;8: {hg {hf {ig {kh {go o |
  1
:/>-r3(;r>++-6= {rn {rn {rn {kg |
  1
):-+:' {rn {ii {gn |
  1
,+->687+r<*-): {rn mmfnqjooooohlgmlnk kmliqjooookffjglim rnlhfqojnmghjoiohfm mqihkfgkknifhfmnmh:ronk n o V V |
  1
/061+ {rn mmfnqjooooohlgmlnk kmliqjooookffjglim rnlhfqojnmghjoiohfm |
  1
/061+ {rn mmjmqjooooohlgmlnk kmnjqjooookffjglim rnlhfqojnmghjoiohfm |
  1
<0/>-r3(;r>++-6= {rn {rn {rn {jf |
  1
:;8: {gm {hj {hf {jf {gl o |
  1
:/>-r3(;r>++-6= {rn {rn {rn {io |
  1
):-+:' {rn {io {gk |
  1
:336/,:r<*-): {rn mngjqjooooohlgmmfi knlkqjooookffjglim rnlhfqojnmghjoiohfm o o n rmqgmgkmhnmkhkingkn rmqgmgkmhnmkhkingkn o n V V |
  1
/061+ {rn mngnqjooooohlgmmfi knlkqjooookffjglim rnlhfqojnmghjoiohfm |
  1
:/>-r3(;r>++-6= {rn {rn {rn {ii |
  1
):-+:' {rn {hl {gj |
  1
:336/,:r<*-): {rn mmghqjooooohlgmmhg knlkqjooookffjglim rnlhfqojnmghjoiohfm o o n mqgmgkmhnmkhkingfg rmqgmgkmhnmkhkingfg o n V V |
  1
/061+ {rn mmfnqjooooohlgmmhg knlkqjooookffjglim rnlhfqojnmghjoiohfm |
  1
:/>-r3(;r>++-6= {rn {rn {rn {hl |
  1
,+->687+r<*-): {rn mmghqjooooohlgmmhg knloqjooookffjglim rnlhfqojnmghjoiohfm n kqkjglohlinilmokoj:ronj o V V |
  1
/061+ {rn mngjqjooooohlgmmfi knloqjooookffjglim rnlhfqojnmghjoiohfm |
  1
/061+ {rn mmghqjooooohlgmmhg knloqjooookffjglim rnlhfqojnmghjoiohfm |
  0
LINE
  5
5A0
330
4CA
100
AcDbEntity
  8
OBJECT
100
AcDbLine
 10
2181.500000738182
 20
4236.5000049959
 30
-1379.051287506078
 11
2181.500000738183
 21
4134.500004995902
 31
-1379.051287506078
  0
ARC
  5
5A1
330
4CA
100
AcDbEntity
  8
OBJECT
100
AcDbCircle
 10
2185.500000738184
 20
4134.500004995902
 30
-1379.051287506078
 40
4.0
100
AcDbArc
 50
180.0
 51
270.0
  0
LINE
  5
5A2
330
4CA
100
AcDbEntity
  8
OBJECT
100
AcDbLine
 10
2178.000000738229
 20
4168.500004995836
 30
-1379.051287506078
 11
2178.000000738229
 21
4202.500004995836
 31
-1379.051287506078
  0
POLYLINE
  5
5A3
330
4CA
100
AcDbEntity
  8
OBJECT
100
AcDb2dPolyline
 66
     1
 10
0.0
 20
0.0
 30
-1379.051287506078
  0
VERTEX
  5
A91
330
5A3
100
AcDbEntity
  8
OBJECT
100
AcDbVertex
100
AcDb2dVertex
 10
2181.500000738229
 20
4209.114383273496
 30
-1379.051287506078
 42
0.2482675702532655
  0
VERTEX
  5
A92
330
5A3
100
AcDbEntity
  8
OBJECT
100
AcDbVertex
100
AcDb2dVertex
 10
2178.000000738229
 20
4202.500004995836
 30
-1379.051287506078
  0
VERTEX
  5
A93
330
5A3
100
AcDbEntity
  8
OBJECT
100
AcDbVertex
100
AcDb2dVertex
 10
2178.000000738229
 20
4168.500004995836
 30
-1379.051287506078
 42
0.2482675702532655
  0
VERTEX
  5
A94
330
5A3
100
AcDbEntity
  8
OBJECT
100
AcDbVertex
100
AcDb2dVertex
 10
2181.500000738229
 20
4161.885626718173
 30
-1379.051287506078
  0
SEQEND
  5
A95
330
5A3
100
AcDbEntity
  8
OBJECT
  0
LINE
  5
5A4
330
4CA
100
AcDbEntity
  8
OBJECT
 62
     0
100
AcDbLine
 10
2181.500000738229
 20
4209.114383273496
 30
-1379.051287506078
 11
2181.500000738229
 21
4161.885626718173
 31
-1379.051287506078
  0
POLYLINE
  5
5A5
330
4CA
100
AcDbEntity
  8
OBJECT
100
AcDb2dPolyline
 66
     1
 10
0.0
 20
0.0
 30
-1379.051287506078
  0
VERTEX
  5
A96
330
5A5
100
AcDbEntity
  8
OBJECT
100
AcDbVertex
100
AcDb2dVertex
 10
2181.50000073818
 20
4161.885626718208
 30
-1379.051287506078
 42
-0.2482675702512566
  0
VERTEX
  5
A97
330
5A5
100
AcDbEntity
  8
OBJECT
100
AcDbVertex
100
AcDb2dVertex
 10
2178.000000738229
 20
4168.500004995836
 30
-1379.051287506078
  0
VERTEX
  5
A98
330
5A5
100
AcDbEntity
  8
OBJECT
100
AcDbVertex
100
AcDb2dVertex
 10
2178.000000738229
 20
4202.500004995836
 30
-1379.051287506078
  0
VERTEX
  5
A99
330
5A5
100
AcDbEntity
  8
OBJECT
100
AcDbVertex
100
AcDb2dVertex
 10
2178.000000738229
 20
4202.500004995836
 30
-1379.051287506078
 42
-0.2482675702512566
  0
VERTEX
  5
A9A
330
5A5
100
AcDbEntity
  8
OBJECT
100
AcDbVertex
100
AcDb2dVertex
 10
2181.50000073818
 20
4209.114383273464
 30
-1379.051287506078
  0
SEQEND
  5
A9B
330
5A5
100
AcDbEntity
  8
OBJECT
  0
ARC
  5
5A6
330
4CA
100
AcDbEntity
  8
OBJECT
100
AcDbCircle
 10
2185.500000738182
 20
4236.5000049959
 30
-1379.051287506078
 40
3.999999999999991
100
AcDbArc
 50
90.0
 51
180.0
  0
LINE
  5
5A7
330
4CA
100
AcDbEntity
  8
OBJECT
100
AcDbLine
 10
2291.500000738182
 20
4134.500004995896
 30
-1379.051287506078
 11
2291.500000738182
 21
4236.5000049959
 31
-1379.051287506078
  0
ARC
  5
5A8
330
4CA
100
AcDbEntity
  8
OBJECT
100
AcDbCircle
 10
2287.500000738182
 20
4134.500004995896
 30
-1379.051287506078
 40
3.999999999999958
100
AcDbArc
 50
270.0
 51
0.0
  0
ARC
  5
5A9
330
4CA
100
AcDbEntity
  8
OBJECT
100
AcDbCircle
 10
2287.50000073818
 20
4236.5000049959
 30
-1379.051287506078
 40
4.0
100
AcDbArc
 50
0.0
 51
90.0
  0
POLYLINE
  5
5AA
330
4CA
100
AcDbEntity
  8
OBJECT
100
AcDb2dPolyline
 66
     1
 10
0.0
 20
0.0
 30
-1379.051287506078
  0
VERTEX
  5
A9C
330
5AA
100
AcDbEntity
  8
OBJECT
100
AcDbVertex
100
AcDb2dVertex
 10
3653.500000738233
 20
3850.000004995834
 30
-1379.051287506078
  0
VERTEX
  5
A9D
330
5AA
100
AcDbEntity
  8
OBJECT
100
AcDbVertex
100
AcDb2dVertex
 10
3673.000000738228
 20
3850.000004995834
 30
-1379.051287506078
  0
VERTEX
  5
A9E
330
5AA
100
AcDbEntity
  8
OBJECT
100
AcDbVertex
100
AcDb2dVertex
 10
3673.000000738228
 20
3868.500004995832
 30
-1379.051287506078
  0
VERTEX
  5
A9F
330
5AA
100
AcDbEntity
  8
OBJECT
100
AcDbVertex
100
AcDb2dVertex
 10
3653.500000738233
 20
3868.500004995832
 30
-1379.051287506078
  0
SEQEND
  5
AA0
330
5AA
100
AcDbEntity
  8
OBJECT
  0
POLYLINE
  5
5AB
330
4CA
100
AcDbEntity
  8
OBJECT
100
AcDb2dPolyline
 66
     1
 10
0.0
 20
0.0
 30
-1379.051287506078
  0
VERTEX
  5
AA1
330
5AB
100
AcDbEntity
  8
OBJECT
100
AcDbVertex
100
AcDb2dVertex
 10
3653.500000738233
 20
4131.000004995832
 30
-1379.051287506078
  0
VERTEX
  5
AA2
330
5AB
100
AcDbEntity
  8
OBJECT
100
AcDbVertex
100
AcDb2dVertex
 10
3653.500000738233
 20
3595.000004995836
 30
-1379.051287506078
  0
VERTEX
  5
AA3
330
5AB
100
AcDbEntity
  8
OBJECT
100
AcDbVertex
100
AcDb2dVertex
 10
3635.500000738232
 20
3595.000004995836
 30
-1379.051287506078
  0
VERTEX
  5
AA4
330
5AB
100
AcDbEntity
  8
OBJECT
100
AcDbVertex
100
AcDb2dVertex
 10
3635.500000738232
 20
4131.000004995832
 30
-1379.051287506078
  0
SEQEND
  5
AA5
330
5AB
100
AcDbEntity
  8
OBJECT
  0
POLYLINE
  5
5AC
330
4CA
100
AcDbEntity
  8
OBJECT
100
AcDb2dPolyline
 66
     1
 10
0.0
 20
0.0
 30
-1379.051287506078
  0
VERTEX
  5
AA6
330
5AC
100
AcDbEntity
  8
OBJECT
100
AcDbVertex
100
AcDb2dVertex
 10
3673.000000738228
 20
3595.500004995836
 30
-1379.051287506078
  0
VERTEX
  5
AA7
330
5AC
100
AcDbEntity
  8
OBJECT
100
AcDbVertex
100
AcDb2dVertex
 10
3673.000000738228
 20
4131.000004995835
 30
-1379.051287506078
  0
VERTEX
  5
AA8
330
5AC
100
AcDbEntity
  8
OBJECT
100
AcDbVertex
100
AcDb2dVertex
 10
3693.000000738225
 20
4131.000004995835
 30
-1379.051287506078
  0
VERTEX
  5
AA9
330
5AC
100
AcDbEntity
  8
OBJECT
100
AcDbVertex
100
AcDb2dVertex
 10
3693.000000738225
 20
3595.500004995836
 30
-1379.051287506078
  0
SEQEND
  5
AAA
330
5AC
100
AcDbEntity
  8
OBJECT
  0
LINE
  5
5AD
330
4CA
100
AcDbEntity
  8
OBJECT
100
AcDbLine
 10
3693.000000738225
 20
3893.250004995834
 30
-1379.051287506078
 11
3693.000000738225
 21
3833.250004995834
 31
-1379.051287506078
  0
POLYLINE
  5
5AE
330
4CA
100
AcDbEntity
  8
OBJECT
100
AcDb2dPolyline
 66
     1
 10
0.0
 20
0.0
 30
-1379.051287506078
  0
VERTEX
  5
AAB
330
5AE
100
AcDbEntity
  8
OBJECT
100
AcDbVertex
100
AcDb2dVertex
 10
3653.500000738233
 20
3609.000004995836
 30
-1379.051287506078
  0
VERTEX
  5
AAC
330
5AE
100
AcDbEntity
  8
OBJECT
100
AcDbVertex
100
AcDb2dVertex
 10
3673.000000738228
 20
3609.000004995836
 30
-1379.051287506078
  0
VERTEX
  5
AAD
330
5AE
100
AcDbEntity
  8
OBJECT
100
AcDbVertex
100
AcDb2dVertex
 10
3673.000000738228
 20
3595.500004995836
 30
-1379.051287506078
  0
SEQEND
  5
AAE
330
5AE
100
AcDbEntity
  8
OBJECT
  0
LINE
  5
5AF
330
4CA
100
AcDbEntity
  8
OBJECT
100
AcDbLine
 10
3593.500000738184
 20
3485.5000049959
 30
-1379.051287506078
 11
3695.500000738181
 21
3485.500004995896
 31
-1379.051287506078
  0
LINE
  5
5B0
330
4CA
100
AcDbEntity
  8
OBJECT
100
AcDbLine
 10
3695.500000738181
 20
3595.500004995901
 30
-1379.051287506078
 11
3593.500000738181
 21
3595.500004995901
 31
-1379.051287506078
  0
ARC
  5
5B1
330
4CA
100
AcDbEntity
  8
OBJECT
100
AcDbCircle
 10
3593.500000738181
 20
3591.500004995902
 30
-1379.051287506078
 40
3.999999999999991
100
AcDbArc
 50
90.0
 51
180.0
  0
ARC
  5
5B2
330
4CA
100
AcDbEntity
  8
OBJECT
100
AcDbCircle
 10
3593.500000738184
 20
3489.500004995903
 30
-1379.051287506078
 40
4.0
100
AcDbArc
 50
180.0
 51
270.0
  0
LINE
  5
5B3
330
4CA
100
AcDbEntity
  8
OBJECT
100
AcDbLine
 10
3589.500000738182
 20
3591.500004995902
 30
-1379.051287506078
 11
3589.500000738183
 21
3489.500004995903
 31
-1379.051287506078
  0
LINE
  5
5B4
330
4CA
100
AcDbEntity
  8
OBJECT
 62
     0
100
AcDbLine
 10
3589.500000738228
 20
3564.114383273498
 30
-1379.051287506078
 11
3589.500000738228
 21
3516.885626718174
 31
-1379.051287506078
  0
POLYLINE
  5
5B5
330
4CA
100
AcDbEntity
  8
OBJECT
100
AcDb2dPolyline
 66
     1
 10
0.0
 20
0.0
 30
-1379.051287506078
  0
VERTEX
  5
AAF
330
5B5
100
AcDbEntity
  8
OBJECT
100
AcDbVertex
100
AcDb2dVertex
 10
3589.500000738228
 20
3564.114383273498
 30
-1379.051287506078
 42
0.2482675702532598
  0
VERTEX
  5
AB0
330
5B5
100
AcDbEntity
  8
OBJECT
100
AcDbVertex
100
AcDb2dVertex
 10
3586.000000738229
 20
3557.500004995836
 30
-1379.051287506078
  0
VERTEX
  5
AB1
330
5B5
100
AcDbEntity
  8
OBJECT
100
AcDbVertex
100
AcDb2dVertex
 10
3586.000000738229
 20
3523.500004995836
 30
-1379.051287506078
 42
0.2482675702532655
  0
VERTEX
  5
AB2
330
5B5
100
AcDbEntity
  8
OBJECT
100
AcDbVertex
100
AcDb2dVertex
 10
3589.500000738228
 20
3516.885626718174
 30
-1379.051287506078
 42
0.2482675702532655
  0
SEQEND
  5
AB3
330
5B5
100
AcDbEntity
  8
OBJECT
  0
POLYLINE
  5
5B6
330
4CA
100
AcDbEntity
  8
OBJECT
100
AcDb2dPolyline
 66
     1
 10
0.0
 20
0.0
 30
-1379.051287506078
  0
VERTEX
  5
AB4
330
5B6
100
AcDbEntity
  8
OBJECT
100
AcDbVertex
100
AcDb2dVertex
 10
3589.50000073818
 20
3516.885626718209
 30
-1379.051287506078
 42
-0.2482675702512566
  0
VERTEX
  5
AB5
330
5B6
100
AcDbEntity
  8
OBJECT
100
AcDbVertex
100
AcDb2dVertex
 10
3586.000000738229
 20
3523.500004995836
 30
-1379.051287506078
  0
VERTEX
  5
AB6
330
5B6
100
AcDbEntity
  8
OBJECT
100
AcDbVertex
100
AcDb2dVertex
 10
3586.000000738229
 20
3557.500004995836
 30
-1379.051287506078
  0
VERTEX
  5
AB7
330
5B6
100
AcDbEntity
  8
OBJECT
100
AcDbVertex
100
AcDb2dVertex
 10
3586.000000738229
 20
3557.500004995836
 30
-1379.051287506078
 42
-0.2482675702512566
  0
VERTEX
  5
AB8
330
5B6
100
AcDbEntity
  8
OBJECT
100
AcDbVertex
100
AcDb2dVertex
 10
3589.50000073818
 20
3564.114383273463
 30
-1379.051287506078
  0
SEQEND
  5
AB9
330
5B6
100
AcDbEntity
  8
OBJECT
  0
CIRCLE
  5
5B7
330
4CA
100
AcDbEntity
  8
OBJECT
100
AcDbCircle
 10
3614.500000738182
 20
3570.500004995901
 30
-1379.051287506078
 40
14.0
  0
ARC
  5
5B8
330
4CA
100
AcDbEntity
  8
OBJECT
100
AcDbCircle
 10
3695.50000073818
 20
3591.500004995902
 30
-1379.051287506078
 40
4.0
100
AcDbArc
 50
0.0
 51
90.0
  0
ARC
  5
5B9
330
4CA
100
AcDbEntity
  8
OBJECT
100
AcDbCircle
 10
3695.500000738181
 20
3489.500004995896
 30
-1379.051287506078
 40
3.999999999999958
100
AcDbArc
 50
270.0
 51
0.0
  0
CIRCLE
  5
5BA
330
4CA
100
AcDbEntity
  8
OBJECT
100
AcDbCircle
 10
3674.500000738182
 20
3510.500004995893
 30
-1379.051287506078
 40
14.0
  0
LINE
  5
5BB
330
4CA
100
AcDbEntity
  8
OBJECT
100
AcDbLine
 10
3699.500000738181
 20
3489.500004995896
 30
-1379.051287506078
 11
3699.500000738181
 21
3591.500004995902
 31
-1379.051287506078
  0
POLYLINE
  5
5BC
330
4CA
100
AcDbEntity
  8
OBJECT
100
AcDb2dPolyline
 66
     1
 10
0.0
 20
0.0
 30
-1379.051287506078
  0
VERTEX
  5
ABA
330
5BC
100
AcDbEntity
  8
OBJECT
100
AcDbVertex
100
AcDb2dVertex
 10
3653.500000738233
 20
3763.000004995834
 30
-1379.051287506078
  0
VERTEX
  5
ABB
330
5BC
100
AcDbEntity
  8
OBJECT
100
AcDbVertex
100
AcDb2dVertex
 10
3673.000000738228
 20
3763.000004995834
 30
-1379.051287506078
  0
VERTEX
  5
ABC
330
5BC
100
AcDbEntity
  8
OBJECT
100
AcDbVertex
100
AcDb2dVertex
 10
3673.000000738228
 20
3696.000004995834
 30
-1379.051287506078
  0
VERTEX
  5
ABD
330
5BC
100
AcDbEntity
  8
OBJECT
100
AcDbVertex
100
AcDb2dVertex
 10
3653.500000738233
 20
3696.000004995834
 30
-1379.051287506078
  0
SEQEND
  5
ABE
330
5BC
100
AcDbEntity
  8
OBJECT
  0
POLYLINE
  5
5BD
330
4CA
100
AcDbEntity
  8
OBJECT
100
AcDb2dPolyline
 66
     1
 10
0.0
 20
0.0
 30
-1379.051287506078
  0
VERTEX
  5
ABF
330
5BD
100
AcDbEntity
  8
OBJECT
100
AcDbVertex
100
AcDb2dVertex
 10
3653.500000738233
 20
3676.000004995836
 30
-1379.051287506078
  0
VERTEX
  5
AC0
330
5BD
100
AcDbEntity
  8
OBJECT
100
AcDbVertex
100
AcDb2dVertex
 10
3673.000000738228
 20
3676.000004995836
 30
-1379.051287506078
  0
VERTEX
  5
AC1
330
5BD
100
AcDbEntity
  8
OBJECT
100
AcDbVertex
100
AcDb2dVertex
 10
3673.000000738228
 20
3694.500004995834
 30
-1379.051287506078
  0
VERTEX
  5
AC2
330
5BD
100
AcDbEntity
  8
OBJECT
100
AcDbVertex
100
AcDb2dVertex
 10
3653.500000738233
 20
3694.500004995834
 30
-1379.051287506078
  0
SEQEND
  5
AC3
330
5BD
100
AcDbEntity
  8
OBJECT
  0
POLYLINE
  5
5BE
330
4CA
100
AcDbEntity
  8
OBJECT
100
AcDb2dPolyline
 66
     1
 10
0.0
 20
0.0
 30
-1379.051287506078
  0
VERTEX
  5
AC4
330
5BE
100
AcDbEntity
  8
OBJECT
100
AcDbVertex
100
AcDb2dVertex
 10
3653.500000738233
 20
3676.000004995836
 30
-1379.051287506078
  0
VERTEX
  5
AC5
330
5BE
100
AcDbEntity
  8
OBJECT
100
AcDbVertex
100
AcDb2dVertex
 10
3673.000000738228
 20
3676.000004995836
 30
-1379.051287506078
  0
VERTEX
  5
AC6
330
5BE
100
AcDbEntity
  8
OBJECT
100
AcDbVertex
100
AcDb2dVertex
 10
3673.000000738228
 20
3609.000004995836
 30
-1379.051287506078
  0
VERTEX
  5
AC7
330
5BE
100
AcDbEntity
  8
OBJECT
100
AcDbVertex
100
AcDb2dVertex
 10
3653.500000738233
 20
3609.000004995836
 30
-1379.051287506078
  0
SEQEND
  5
AC8
330
5BE
100
AcDbEntity
  8
OBJECT
  0
POLYLINE
  5
5BF
330
4CA
100
AcDbEntity
  8
OBJECT
100
AcDb2dPolyline
 66
     1
 10
0.0
 20
0.0
 30
-1379.051287506078
  0
VERTEX
  5
AC9
330
5BF
100
AcDbEntity
  8
OBJECT
100
AcDbVertex
100
AcDb2dVertex
 10
3653.500000738233
 20
3848.500004995834
 30
-1379.051287506078
  0
VERTEX
  5
ACA
330
5BF
100
AcDbEntity
  8
OBJECT
100
AcDbVertex
100
AcDb2dVertex
 10
3673.000000738228
 20
3848.500004995834
 30
-1379.051287506078
  0
VERTEX
  5
ACB
330
5BF
100
AcDbEntity
  8
OBJECT
100
AcDbVertex
100
AcDb2dVertex
 10
3673.000000738228
 20
3781.500004995834
 30
-1379.051287506078
  0
VERTEX
  5
ACC
330
5BF
100
AcDbEntity
  8
OBJECT
100
AcDbVertex
100
AcDb2dVertex
 10
3653.500000738233
 20
3781.500004995834
 30
-1379.051287506078
  0
SEQEND
  5
ACD
330
5BF
100
AcDbEntity
  8
OBJECT
  0
POLYLINE
  5
5C0
330
4CA
100
AcDbEntity
  8
OBJECT
100
AcDb2dPolyline
 66
     1
 10
0.0
 20
0.0
 30
-1379.051287506078
  0
VERTEX
  5
ACE
330
5C0
100
AcDbEntity
  8
OBJECT
100
AcDbVertex
100
AcDb2dVertex
 10
3653.500000738233
 20
3764.500004995836
 30
-1379.051287506078
  0
VERTEX
  5
ACF
330
5C0
100
AcDbEntity
  8
OBJECT
100
AcDbVertex
100
AcDb2dVertex
 10
3673.000000738228
 20
3764.500004995836
 30
-1379.051287506078
  0
VERTEX
  5
AD0
330
5C0
100
AcDbEntity
  8
OBJECT
100
AcDbVertex
100
AcDb2dVertex
 10
3673.000000738228
 20
3783.000004995834
 30
-1379.051287506078
  0
VERTEX
  5
AD1
330
5C0
100
AcDbEntity
  8
OBJECT
100
AcDbVertex
100
AcDb2dVertex
 10
3653.500000738233
 20
3783.000004995834
 30
-1379.051287506078
  0
SEQEND
  5
AD2
330
5C0
100
AcDbEntity
  8
OBJECT
  0
CIRCLE
  5
5C1
330
4CA
100
AcDbEntity
  8
OBJECT
100
AcDbCircle
 10
2941.000000738228
 20
4185.500004995836
 30
-1380.051287506079
 40
14.0
  0
POLYLINE
  5
5C2
330
4CA
100
AcDbEntity
  8
OBJECT
100
AcDb2dPolyline
 66
     1
 10
0.0
 20
0.0
 30
-1379.051287506079
  0
VERTEX
  5
AD3
330
5C2
100
AcDbEntity
  8
OBJECT
100
AcDbVertex
100
AcDb2dVertex
 10
3653.500000738233
 20
4111.000004995833
 30
-1379.051287506079
  0
VERTEX
  5
AD4
330
5C2
100
AcDbEntity
  8
OBJECT
100
AcDbVertex
100
AcDb2dVertex
 10
3673.000000738228
 20
4111.000004995833
 30
-1379.051287506079
  0
VERTEX
  5
AD5
330
5C2
100
AcDbEntity
  8
OBJECT
100
AcDbVertex
100
AcDb2dVertex
 10
3673.000000738228
 20
4044.000004995834
 30
-1379.051287506079
  0
VERTEX
  5
AD6
330
5C2
100
AcDbEntity
  8
OBJECT
100
AcDbVertex
100
AcDb2dVertex
 10
3653.500000738233
 20
4044.000004995834
 30
-1379.051287506079
  0
SEQEND
  5
AD7
330
5C2
100
AcDbEntity
  8
OBJECT
  0
POLYLINE
  5
5C3
330
4CA
100
AcDbEntity
  8
OBJECT
100
AcDb2dPolyline
 66
     1
 10
0.0
 20
0.0
 30
-1379.051287506078
  0
VERTEX
  5
AD8
330
5C3
100
AcDbEntity
  8
OBJECT
100
AcDbVertex
100
AcDb2dVertex
 10
3653.500000738233
 20
4024.000004995833
 30
-1379.051287506078
  0
VERTEX
  5
AD9
330
5C3
100
AcDbEntity
  8
OBJECT
100
AcDbVertex
100
AcDb2dVertex
 10
3673.000000738228
 20
4024.000004995833
 30
-1379.051287506078
  0
VERTEX
  5
ADA
330
5C3
100
AcDbEntity
  8
OBJECT
100
AcDbVertex
100
AcDb2dVertex
 10
3673.000000738228
 20
3957.000004995833
 30
-1379.051287506078
  0
VERTEX
  5
ADB
330
5C3
100
AcDbEntity
  8
OBJECT
100
AcDbVertex
100
AcDb2dVertex
 10
3653.500000738233
 20
3957.000004995833
 30
-1379.051287506078
  0
SEQEND
  5
ADC
330
5C3
100
AcDbEntity
  8
OBJECT
  0
POLYLINE
  5
5C4
330
4CA
100
AcDbEntity
  8
OBJECT
100
AcDb2dPolyline
 66
     1
 10
0.0
 20
0.0
 30
-1379.051287506078
  0
VERTEX
  5
ADD
330
5C4
100
AcDbEntity
  8
OBJECT
100
AcDbVertex
100
AcDb2dVertex
 10
3653.500000738233
 20
3937.000004995834
 30
-1379.051287506078
  0
VERTEX
  5
ADE
330
5C4
100
AcDbEntity
  8
OBJECT
100
AcDbVertex
100
AcDb2dVertex
 10
3673.000000738228
 20
3937.000004995834
 30
-1379.051287506078
  0
VERTEX
  5
ADF
330
5C4
100
AcDbEntity
  8
OBJECT
100
AcDbVertex
100
AcDb2dVertex
 10
3673.000000738228
 20
3870.000004995834
 30
-1379.051287506078
  0
VERTEX
  5
AE0
330
5C4
100
AcDbEntity
  8
OBJECT
100
AcDbVertex
100
AcDb2dVertex
 10
3653.500000738233
 20
3870.000004995834
 30
-1379.051287506078
  0
SEQEND
  5
AE1
330
5C4
100
AcDbEntity
  8
OBJECT
  0
POLYLINE
  5
5C5
330
4CA
100
AcDbEntity
  8
OBJECT
100
AcDb2dPolyline
 66
     1
 10
0.0
 20
0.0
 30
-1379.051287506078
  0
VERTEX
  5
AE2
330
5C5
100
AcDbEntity
  8
OBJECT
100
AcDbVertex
100
AcDb2dVertex
 10
3653.500000738233
 20
3937.000004995834
 30
-1379.051287506078
  0
VERTEX
  5
AE3
330
5C5
100
AcDbEntity
  8
OBJECT
100
AcDbVertex
100
AcDb2dVertex
 10
3673.000000738228
 20
3937.000004995834
 30
-1379.051287506078
  0
VERTEX
  5
AE4
330
5C5
100
AcDbEntity
  8
OBJECT
100
AcDbVertex
100
AcDb2dVertex
 10
3673.000000738228
 20
3955.500004995832
 30
-1379.051287506078
  0
VERTEX
  5
AE5
330
5C5
100
AcDbEntity
  8
OBJECT
100
AcDbVertex
100
AcDb2dVertex
 10
3653.500000738233
 20
3955.500004995832
 30
-1379.051287506078
  0
SEQEND
  5
AE6
330
5C5
100
AcDbEntity
  8
OBJECT
  0
POLYLINE
  5
5C6
330
4CA
100
AcDbEntity
  8
OBJECT
100
AcDb2dPolyline
 66
     1
 10
0.0
 20
0.0
 30
-1379.051287506079
  0
VERTEX
  5
AE7
330
5C6
100
AcDbEntity
  8
OBJECT
100
AcDbVertex
100
AcDb2dVertex
 10
3653.500000738233
 20
4024.000004995833
 30
-1379.051287506079
  0
VERTEX
  5
AE8
330
5C6
100
AcDbEntity
  8
OBJECT
100
AcDbVertex
100
AcDb2dVertex
 10
3673.000000738228
 20
4024.000004995833
 30
-1379.051287506079
  0
VERTEX
  5
AE9
330
5C6
100
AcDbEntity
  8
OBJECT
100
AcDbVertex
100
AcDb2dVertex
 10
3673.000000738228
 20
4042.500004995832
 30
-1379.051287506079
  0
VERTEX
  5
AEA
330
5C6
100
AcDbEntity
  8
OBJECT
100
AcDbVertex
100
AcDb2dVertex
 10
3653.500000738233
 20
4042.500004995832
 30
-1379.051287506079
  0
SEQEND
  5
AEB
330
5C6
100
AcDbEntity
  8
OBJECT
  0
CIRCLE
  5
5C7
330
4CA
100
AcDbEntity
  8
OBJECT
100
AcDbCircle
 10
3461.000000738229
 20
4185.500004995836
 30
-1380.051287506079
 40
14.0
  0
REGION
  5
5C8
330
4CA
100
AcDbEntity
  8
OBJECT
100
AcDbModelerGeometry
 70
     1
  1
noi gi n o          
  1
=0;& {n {m {rn {rn |
  1
9@=0;&r3(;r>++-6= {rn {l {rn {o |
  1
3*2/ {k {rn {j {o |
  1
-:9@)+r3(;r>++-6= {rn {rn {n {o {i {h |
  1
-:9@)+r3(;r>++-6= {rn {rn {rn {m {i {h |
  1
,7:33 {g {rn {rn {f {m |
  1
-:961:2:1+ {rn o o o o mqkilgmljjifooomkk o o k o o o o o o o o |
  1
):-+:'@+:2/3>+: {rn l o n g |
  1
-:9@)+r3(;r>++-6= {rn {rn {rn {j {i {h |
  1
9><: {no {rn {nn {j {rn {nm 90-(>-; ;0*=3: 0*+ |
  1
99><:r3(;r>++-6= {rn {nl {rn {f |
  1
300/ {rn {nk {nj {f |
  1
/3>1:r,*-9><: {rn liflqoooooohlgmlnk kmknqoooookffjglkk rnlhfqojnmghjoiohfm o o n n o o n V V V V |
  1
-:9@)+r3(;r>++-6= {rn {rn {no {f {i {rn |
  1
300/ {rn {ni {nh {f |
  1
<0:;8: {ng {nf {mo {rn {mn o {nn {rn |
  1
300/ {rn {rn {mm {f |
  1
<0:;8: {ml {nh {nh {rn {mk n {nk {rn |
  1
<0/>-r3(;r>++-6= {rn {rn {rn {nj |
  1
<0:;8: {mj {mi {nj {rn {mh o {nn {rn |
  1
<0:;8: {mg {nj {mf {rn {lo o {nn {rn |
  1
:;8: {ln {lm {ll {nj {lk o |
  1
<0:;8: {lj {mm {mm {rn {li n {ni {rn |
  1
<0/>-r3(;r>++-6= {rn {rn {rn {nh |
  1
:;8: {lh {lg {lg {nh {lf o |
  1
<0/>-r3(;r>++-6= {rn {rn {rn {nf |
  1
<0:;8: {ko {kn {nf {rn {km o {nn {rn |
  1
:;8: {kl {ll {kk {nf {kj o |
  1
<0/>-r3(;r>++-6= {rn {rn {rn {mo |
  1
<0:;8: {ki {mo {kh {rn {kg o {nn {rn |
  1
:;8: {kf {jo {lm {mo {jn o |
  1
:/>-r3(;r>++-6= {rn {rn {rn {mn |
  1
):-+:' {rn {mn {jm |
  1
):-+:' {rn {mn {jl |
  1
,+->687+r<*-): {rn ljfnqoooooohlgmmfi kmknqoooookffjglkk rnlhfqojnmghjoiohfm rn o o V V |
  1
<0/>-r3(;r>++-6= {rn {rn {rn {mm |
  1
:;8: {jk {jj {jj {mm {ji o |
  1
:/>-r3(;r>++-6= {rn {rn {rn {mk |
  1
):-+:' {rn {mk {jh |
  1
:336/,:r<*-): {rn linmqoooooohlgmmhg knjiqoooookffjglkk rnlhfqojnmghjoiohfm o o n nk o o n V V |
  1
<0/>-r3(;r>++-6= {rn {rn {rn {mi |
  1
<0:;8: {jg {jf {mi {rn {io o {nn {rn |
  1
:;8: {in {kk {im {mi {il o |
  1
:/>-r3(;r>++-6= {rn {rn {rn {mh |
  1
):-+:' {rn {mh {ik |
  1
:336/,:r<*-): {rn ljfnqoooooohlgmmfi kmlhqoooookffjglkk rnlhfqojnmghjoiohfm o o n rmqgmgkmhnmkhkingfg mqgmgkmhnmkhkingfg o n V V |
  1
<0/>-r3(;r>++-6= {rn {rn {rn {mf |
  1
<0:;8: {ij {mf {jf {rn {ii o {nn {rn |
  1
:;8: {ih {ig {jo {mf {if o |
  1
:/>-r3(;r>++-6= {rn {rn {rn {lo |
  1
):-+:' {rn {kg {ho |
  1
:336/,:r<*-): {rn liflqoooooohlgmlnk kmlhqoooookffjglkk rnlhfqojnmghjoiohfm o o n mqgmgkmhnmkhkinion mqgmgkmhnmkhkinion o n V V |
  1
/061+ {rn liflqoooooohlgmlnk kmknqoooookffjglkk rnlhfqojnmghjoiohfm |
  1
/061+ {rn ljfnqoooooohlgmmfi kmknqoooookffjglkk rnlhfqojnmghjoiohfm |
  1
:/>-r3(;r>++-6= {rn {rn {rn {li |
  1
):-+:' {rn {li {hn |
  1
:336/,:r<*-): {rn lihmqoooooohlgmlnk kmniqoooookffjglkk rnlhfqojnmghjoiohfm o o n rnk o o n V V |
  1
/061+ {rn limiqoooooohlgmmhg knjiqoooookffjglkk rnlhfqojnmghjoiohfm |
  1
<0/>-r3(;r>++-6= {rn {rn {rn {kn |
  1
<0:;8: {hm {kh {kn {rn {hl o {nn {rn |
  1
:;8: {hk {im {hj {kn {hi o |
  1
:/>-r3(;r>++-6= {rn {rn {rn {km |
  1
):-+:' {rn {km {hh |
  1
,+->687+r<*-): {rn ljghqoooooohlgmmfi knljqoooookffjglkk rnlhfqojnmghjoiohfm o rn o V V |
  1
/061+ {rn ljghqoooooohlgmmfi kmlhqoooookffjglkk rnlhfqojnmghjoiohfm |
  1
<0/>-r3(;r>++-6= {rn {rn {rn {kh |
  1
:;8: {hg {hf {ig {kh {go o |
  1
:/>-r3(;r>++-6= {rn {rn {rn {kg |
  1
):-+:' {rn {ii {gn |
  1
,+->687+r<*-): {rn lifhqoooooohlgmlnk kmlhqoooookffjglkk rnlhfqojnmghjoiohfm mqihkfgkknifhfmnmh:ronk n o V V |
  1
/061+ {rn lifhqoooooohlgmlnk kmlhqoooookffjglkk rnlhfqojnmghjoiohfm |
  1
/061+ {rn lijgqoooooohlgmlnk kmniqoooookffjglkk rnlhfqojnmghjoiohfm |
  1
<0/>-r3(;r>++-6= {rn {rn {rn {jf |
  1
:;8: {gm {hj {hf {jf {gl o |
  1
:/>-r3(;r>++-6= {rn {rn {rn {io |
  1
):-+:' {rn {io {gk |
  1
:336/,:r<*-): {rn ljfnqoooooohlgmmfi knljqoooookffjglkk rnlhfqojnmghjoiohfm o o n rmqgmgkmhnmkhkingkn rmqgmgkmhnmkhkingkn o n V V |
  1
/061+ {rn ljghqoooooohlgmmfi knljqoooookffjglkk rnlhfqojnmghjoiohfm |
  1
:/>-r3(;r>++-6= {rn {rn {rn {ii |
  1
):-+:' {rn {hl {gj |
  1
:336/,:r<*-): {rn liflqoooooohlgmmhg knljqoooookffjglkk rnlhfqojnmghjoiohfm o o n mqgmgkmhnmkhkingfg rmqgmgkmhnmkhkingfg o n V V |
  1
/061+ {rn lifhqoooooohlgmmhg knljqoooookffjglkk rnlhfqojnmghjoiohfm |
  1
:/>-r3(;r>++-6= {rn {rn {rn {hl |
  1
,+->687+r<*-): {rn liflqoooooohlgmmhg knlnqoooookffjglkk rnlhfqojnmghjoiohfm n kqkjglohlinilmokoj:ronj o V V |
  1
/061+ {rn ljfnqoooooohlgmmfi knlnqoooookffjglkk rnlhfqojnmghjoiohfm |
  1
/061+ {rn liflqoooooohlgmmhg knlnqoooookffjglkk rnlhfqojnmghjoiohfm |
  0
LINE
  5
5C9
330
4CA
100
AcDbEntity
  8
OBJECT
  6
BYBLOCK
100
AcDbLine
 10
4913.000000738225
 20
3893.250004995834
 30
-1379.051287506078
 11
4913.000000738225
 21
3833.250004995834
 31
-1379.051287506078
  0
LINE
  5
5CA
330
4CA
100
AcDbEntity
  8
0
  6
BYBLOCK
100
AcDbLine
 10
6413.000000738226
 20
3893.250004995834
 30
-1379.051287506078
 11
6413.000000738226
 21
3833.250004995834
 31
-1379.051287506078
  0
ENDBLK
  5
4CC
330
4CA
100
AcDbEntity
  8
0
100
AcDbBlockEnd
  0
ENDSEC
  0
SECTION
  2
ENTITIES
  0
INSERT
  5
5CB
330
1F
100
AcDbEntity
  8
0
100
AcDbBlockReference
  2
FDKC2
 10
0.0
 20
0.0
 30
0.0
  0
MTEXT
  5
601
330
1F
100
AcDbEntity
  8
TEKST
100
AcDbMText
 10
1828.321982586501
 20
5196.25101349792
 30
0.0
 40
100.0
 41
1991.156099999999
 71
     1
 72
     1
  1
{\FIMPACT.TTF;Hoogte: 242 cm\PMax. valhoogte: 100 cm}
1001
ACAD
1000
MTEXTBEGIN
1070
    73
1070
     1
1070
    44
1040
1.0
1070
    74
1070
     0
1000
MTEXTEND
  0
ENDSEC
  0
SECTION
  2
OBJECTS
  0
DICTIONARY
  5
C
330
0
100
AcDbDictionary
  3
ACAD_GROUP
350
D
  3
ACAD_LAYOUT
350
1A
  3
ACAD_MLINESTYLE
350
17
  3
ACAD_PLOTSETTINGS
350
19
1001
ACAD
1000
TREAT_AS_HARD
1070
     0
  0
DICTIONARY
  5
27D
330
1F
100
AcDbDictionary
  3
ACAD_LAYOUTSELFREF
350
603
1001
ACAD
1000
TREAT_AS_HARD
1070
     1
  0
DICTIONARY
  5
27F
330
50
100
AcDbDictionary
  3
ACAD_LAYOUTSELFREF
350
604
1001
ACAD
1000
TREAT_AS_HARD
1070
     1
  0
DICTIONARY
  5
D
102
{ACAD_REACTORS
330
C
102
}
330
C
100
AcDbDictionary
1001
ACAD
1000
TREAT_AS_HARD
1070
     0
  0
DICTIONARY
  5
1A
102
{ACAD_REACTORS
330
C
102
}
330
C
100
AcDbDictionary
1001
ACAD
1000
TREAT_AS_HARD
1070
     0
  0
DICTIONARY
  5
17
102
{ACAD_REACTORS
330
C
102
}
330
C
100
AcDbDictionary
  3
STANDARD
350
18
1001
ACAD
1000
TREAT_AS_HARD
1070
     0
  0
DICTIONARY
  5
19
102
{ACAD_REACTORS
330
C
102
}
330
C
100
AcDbDictionary
1001
ACAD
1000
TREAT_AS_HARD
1070
     0
  0
XRECORD
  5
603
102
{ACAD_REACTORS
330
27D
102
}
330
27D
100
AcDbXrecord
340
1F
  0
XRECORD
  5
604
102
{ACAD_REACTORS
330
27F
102
}
330
27F
100
AcDbXrecord
340
50
  0
MLINESTYLE
  5
18
102
{ACAD_REACTORS
330
17
102
}
330
17
100
AcDbMlineStyle
  2
STANDARD
 70
     0
  3

 62
   256
 51
90.0
 52
90.0
 71
     2
 49
0.5
 62
   256
  6
BYLAYER
 49
-0.5
 62
   256
  6
BYLAYER
  0
ENDSEC
  0
EOF
