  0
SECTION
  2
HEADER
  9
$ACADVER
  1
AC1012
  9
$DWGCODEPAGE
  3
ANSI_1252
  9
$INSBASE
 10
0.0
 20
0.0
 30
0.0
  9
$EXTMIN
 10
-274.075479829491
 20
-147.3942678481034
 30
-1379.093369600678
  9
$EXTMAX
 10
4053.777733993739
 20
5352.946991119506
 30
0.0420885163084677
  9
$LIMMIN
 10
0.0
 20
0.0
  9
$LIMMAX
 10
420.0
 20
297.0
  9
$ORTHOMODE
 70
     0
  9
$REGENMODE
 70
     1
  9
$FILLMODE
 70
     1
  9
$QTEXTMODE
 70
     0
  9
$MIRRTEXT
 70
     1
  9
$DRAGMODE
 70
     2
  9
$LTSCALE
 40
1.0
  9
$OSMODE
 70
  2559
  9
$ATTMODE
 70
     1
  9
$TEXTSIZE
 40
2.5
  9
$TRACEWID
 40
1.0
  9
$TEXTSTYLE
  7
STANDARD
  9
$CLAYER
  8
HATCH
  9
$CELTYPE
  6
BYLAYER
  9
$CECOLOR
 62
   256
  9
$CELTSCALE
 40
1.0
  9
$DELOBJ
 70
     1
  9
$DISPSILH
 70
     0
  9
$DIMSCALE
 40
1.0
  9
$DIMASZ
 40
2.5
  9
$DIMEXO
 40
0.625
  9
$DIMDLI
 40
3.75
  9
$DIMRND
 40
0.0
  9
$DIMDLE
 40
0.0
  9
$DIMEXE
 40
1.25
  9
$DIMTP
 40
0.0
  9
$DIMTM
 40
0.0
  9
$DIMTXT
 40
2.5
  9
$DIMCEN
 40
2.5
  9
$DIMTSZ
 40
0.0
  9
$DIMTOL
 70
     0
  9
$DIMLIM
 70
     0
  9
$DIMTIH
 70
     0
  9
$DIMTOH
 70
     0
  9
$DIMSE1
 70
     0
  9
$DIMSE2
 70
     0
  9
$DIMTAD
 70
     1
  9
$DIMZIN
 70
     8
  9
$DIMBLK
  1

  9
$DIMASO
 70
     1
  9
$DIMSHO
 70
     1
  9
$DIMPOST
  1

  9
$DIMAPOST
  1

  9
$DIMALT
 70
     0
  9
$DIMALTD
 70
     3
  9
$DIMALTF
 40
0.03937007874016
  9
$DIMLFAC
 40
1.0
  9
$DIMTOFL
 70
     1
  9
$DIMTVP
 40
0.0
  9
$DIMTIX
 70
     0
  9
$DIMSOXD
 70
     0
  9
$DIMSAH
 70
     0
  9
$DIMBLK1
  1

  9
$DIMBLK2
  1

  9
$DIMSTYLE
  2
ISO-25
  9
$DIMCLRD
 70
     0
  9
$DIMCLRE
 70
     0
  9
$DIMCLRT
 70
     0
  9
$DIMTFAC
 40
1.0
  9
$DIMGAP
 40
0.625
  9
$DIMJUST
 70
     0
  9
$DIMSD1
 70
     0
  9
$DIMSD2
 70
     0
  9
$DIMTOLJ
 70
     0
  9
$DIMTZIN
 70
     8
  9
$DIMALTZ
 70
     0
  9
$DIMALTTZ
 70
     0
  9
$DIMFIT
 70
     3
  9
$DIMUPT
 70
     0
  9
$DIMUNIT
 70
     2
  9
$DIMDEC
 70
     2
  9
$DIMTDEC
 70
     2
  9
$DIMALTU
 70
     2
  9
$DIMALTTD
 70
     3
  9
$DIMTXSTY
  7
STANDARD
  9
$DIMAUNIT
 70
     0
  9
$LUNITS
 70
     2
  9
$LUPREC
 70
     4
  9
$SKETCHINC
 40
1.0
  9
$FILLETRAD
 40
10.0
  9
$AUNITS
 70
     0
  9
$AUPREC
 70
     0
  9
$MENU
  1
.
  9
$ELEVATION
 40
0.0
  9
$PELEVATION
 40
0.0
  9
$THICKNESS
 40
0.0
  9
$LIMCHECK
 70
     0
  9
$BLIPMODE
 70
     0
  9
$CHAMFERA
 40
10.0
  9
$CHAMFERB
 40
10.0
  9
$CHAMFERC
 40
20.0
  9
$CHAMFERD
 40
0.0
  9
$SKPOLY
 70
     0
  9
$TDCREATE
 40
2452626.667556366
  9
$TDUPDATE
 40
2452779.375696643
  9
$TDINDWG
 40
0.0029929398
  9
$TDUSRTIMER
 40
0.0029923611
  9
$USRTIMER
 70
     1
  9
$ANGBASE
 50
0.0
  9
$ANGDIR
 70
     0
  9
$PDMODE
 70
     0
  9
$PDSIZE
 40
0.0
  9
$PLINEWID
 40
0.0
  9
$COORDS
 70
     2
  9
$SPLFRAME
 70
     0
  9
$SPLINETYPE
 70
     6
  9
$SPLINESEGS
 70
     8
  9
$ATTDIA
 70
     0
  9
$ATTREQ
 70
     1
  9
$HANDLING
 70
-16383
  9
$HANDSEED
  5
84F
  9
$SURFTAB1
 70
     6
  9
$SURFTAB2
 70
     6
  9
$SURFTYPE
 70
     6
  9
$SURFU
 70
     6
  9
$SURFV
 70
     6
  9
$UCSNAME
  2

  9
$UCSORG
 10
0.0
 20
0.0
 30
0.0
  9
$UCSXDIR
 10
1.0
 20
0.0
 30
0.0
  9
$UCSYDIR
 10
0.0
 20
1.0
 30
0.0
  9
$PUCSNAME
  2

  9
$PUCSORG
 10
0.0
 20
0.0
 30
0.0
  9
$PUCSXDIR
 10
1.0
 20
0.0
 30
0.0
  9
$PUCSYDIR
 10
0.0
 20
1.0
 30
0.0
  9
$USERI1
 70
     0
  9
$USERI2
 70
     0
  9
$USERI3
 70
     0
  9
$USERI4
 70
     0
  9
$USERI5
 70
     0
  9
$USERR1
 40
0.0
  9
$USERR2
 40
0.0
  9
$USERR3
 40
0.0
  9
$USERR4
 40
0.0
  9
$USERR5
 40
0.0
  9
$WORLDVIEW
 70
     1
  9
$SHADEDGE
 70
     3
  9
$SHADEDIF
 70
    70
  9
$TILEMODE
 70
     1
  9
$MAXACTVP
 70
    64
  9
$PINSBASE
 10
0.0
 20
0.0
 30
0.0
  9
$PLIMCHECK
 70
     0
  9
$PEXTMIN
 10
0.0
 20
0.0
 30
0.0
  9
$PEXTMAX
 10
0.0
 20
0.0
 30
0.0
  9
$PLIMMIN
 10
0.0
 20
0.0
  9
$PLIMMAX
 10
12.0
 20
9.0
  9
$UNITMODE
 70
     0
  9
$VISRETAIN
 70
     1
  9
$PLINEGEN
 70
     0
  9
$PSLTSCALE
 70
     1
  9
$TREEDEPTH
 70
  3020
  9
$PICKSTYLE
 70
     1
  9
$CMLSTYLE
  2
STANDARD
  9
$CMLJUST
 70
     0
  9
$CMLSCALE
 40
20.0
  9
$SAVEIMAGES
 70
     1
  0
ENDSEC
  0
SECTION
  2
CLASSES
  0
CLASS
  1
ACDBDICTIONARYWDFLT
  2
AcDbDictionaryWithDefault
  3
AutoCAD 2000
 90
    32768
280
     0
281
     0
  0
CLASS
  1
ACDBPLACEHOLDER
  2
AcDbPlaceHolder
  3
AutoCAD 2000
 90
    32768
280
     0
281
     0
  0
CLASS
  1
LAYOUT
  2
AcDbLayout
  3
AutoCAD 2000
 90
    32768
280
     0
281
     0
  0
CLASS
  1
LONG_TRANSACTION
  2
AcDbLongTransaction
  3
AutoCAD 2000
 90
    32768
280
     0
281
     0
  0
CLASS
  1
LWPOLYLINE
  2
AcDbPolyline
  3
AutoCAD 2000
 90
    32768
280
     0
281
     1
  0
CLASS
  1
HATCH
  2
AcDbHatch
  3
AutoCAD 2000
 90
    32768
280
     0
281
     1
  0
CLASS
  1
XRECORD
  2
AcDbXrecord
  3
AutoCAD 2000
 90
    32768
280
     0
281
     0
  0
CLASS
  1
LONG_TRANSACTION
  2
AcDbLongTransaction
  3
AutoCAD 2000
 90
    32768
280
     0
281
     0
  0
CLASS
  1
LWPOLYLINE
  2
AcDbPolyline
  3
AutoCAD 2000
 90
    32768
280
     0
281
     1
  0
CLASS
  1
HATCH
  2
AcDbHatch
  3
AutoCAD 2000
 90
    32768
280
     0
281
     1
  0
CLASS
  1
XRECORD
  2
AcDbXrecord
  3
AutoCAD 2000
 90
    32768
280
     0
281
     0
  0
CLASS
  1
LONG_TRANSACTION
  2
AcDbLongTransaction
  3
AutoCAD 2000
 90
    32768
280
     0
281
     0
  0
CLASS
  1
LWPOLYLINE
  2
AcDbPolyline
  3
AutoCAD 2000
 90
    32768
280
     0
281
     1
  0
CLASS
  1
HATCH
  2
AcDbHatch
  3
AutoCAD 2000
 90
    32768
280
     0
281
     1
  0
CLASS
  1
XRECORD
  2
AcDbXrecord
  3
AutoCAD 2000
 90
    32768
280
     0
281
     0
  0
CLASS
  1
DICTIONARYVAR
  2
AcDbDictionaryVar
  3
AutoCAD 2000
 90
    32768
280
     0
281
     0
  0
CLASS
  1
SORTENTSTABLE
  2
AcDbSortentsTable
  3
AutoCAD 2000
 90
    32768
280
     0
281
     0
  0
CLASS
  1
LONG_TRANSACTION
  2
AcDbLongTransaction
  3
AutoCAD 2000
 90
    32768
280
     0
281
     0
  0
CLASS
  1
LWPOLYLINE
  2
AcDbPolyline
  3
AutoCAD 2000
 90
    32768
280
     0
281
     1
  0
CLASS
  1
HATCH
  2
AcDbHatch
  3
AutoCAD 2000
 90
    32768
280
     0
281
     1
  0
CLASS
  1
XRECORD
  2
AcDbXrecord
  3
AutoCAD 2000
 90
    32768
280
     0
281
     0
  0
ENDSEC
  0
SECTION
  2
TABLES
  0
TABLE
  2
VPORT
  5
8
330
0
100
AcDbSymbolTable
 70
     2
  0
VPORT
  5
5BF
330
8
100
AcDbSymbolTableRecord
100
AcDbViewportTableRecord
  2
*ACTIVE
 70
     0
 10
0.0
 20
0.0
 11
1.0
 21
1.0
 12
1047.445141581498
 22
3263.171186995639
 13
0.0
 23
0.0
 14
10.0
 24
10.0
 15
10.0
 25
10.0
 16
0.0
 26
0.0
 36
1.0
 17
0.0
 27
0.0
 37
0.0
 40
12432.45706880121
 41
1.558704453441295
 42
50.0
 43
0.0
 44
0.0
 50
0.0
 51
0.0
 71
     0
 72
   100
 73
     1
 74
     3
 75
     0
 76
     0
 77
     0
 78
     0
  0
ENDTAB
  0
TABLE
  2
LTYPE
  5
5
330
0
100
AcDbSymbolTable
 70
     1
  0
LTYPE
  5
14
330
5
100
AcDbSymbolTableRecord
100
AcDbLinetypeTableRecord
  2
BYBLOCK
 70
     0
  3

 72
    65
 73
     0
 40
0.0
  0
LTYPE
  5
15
330
5
100
AcDbSymbolTableRecord
100
AcDbLinetypeTableRecord
  2
BYLAYER
 70
     0
  3

 72
    65
 73
     0
 40
0.0
  0
LTYPE
  5
16
330
5
100
AcDbSymbolTableRecord
100
AcDbLinetypeTableRecord
  2
CONTINUOUS
 70
     0
  3
Solid line
 72
    65
 73
     0
 40
0.0
  0
ENDTAB
  0
TABLE
  2
LAYER
  5
2
330
0
100
AcDbSymbolTable
 70
     5
  0
LAYER
  5
10
330
2
100
AcDbSymbolTableRecord
100
AcDbLayerTableRecord
  2
0
 70
     0
 62
     7
  6
CONTINUOUS
  0
LAYER
  5
5D
330
2
100
AcDbSymbolTableRecord
100
AcDbLayerTableRecord
  2
SAFETY
 70
     0
 62
     7
  6
CONTINUOUS
  0
LAYER
  5
5E
330
2
100
AcDbSymbolTableRecord
100
AcDbLayerTableRecord
  2
OBJECT
 70
     0
 62
     7
  6
CONTINUOUS
  0
LAYER
  5
1E9
330
2
100
AcDbSymbolTableRecord
100
AcDbLayerTableRecord
  2
TEKST
 70
     0
 62
     7
  6
CONTINUOUS
  0
LAYER
  5
373
330
2
100
AcDbSymbolTableRecord
100
AcDbLayerTableRecord
  2
HATCH
 70
     0
 62
     7
  6
CONTINUOUS
  0
ENDTAB
  0
TABLE
  2
STYLE
  5
3
330
0
100
AcDbSymbolTable
 70
     3
  0
STYLE
  5
11
330
3
100
AcDbSymbolTableRecord
100
AcDbTextStyleTableRecord
  2
STANDARD
 70
     0
 40
0.0
 41
1.0
 50
0.0
 71
     0
 42
2.5
  3
txt
  4

  0
STYLE
  5
5F
330
3
100
AcDbSymbolTableRecord
100
AcDbTextStyleTableRecord
  2
STYLE1
 70
     0
 40
100.0
 41
1.0
 50
0.0
 71
     0
 42
75.0
  3
romans.shx
  4

  0
STYLE
  5
60
330
3
100
AcDbSymbolTableRecord
100
AcDbTextStyleTableRecord
  2
STYLE4
 70
     0
 40
150000.0
 41
1.0
 50
0.0
 71
     0
 42
260.0
  3
romant.shx
  4

  0
ENDTAB
  0
TABLE
  2
VIEW
  5
6
330
0
100
AcDbSymbolTable
 70
     0
  0
ENDTAB
  0
TABLE
  2
UCS
  5
7
330
0
100
AcDbSymbolTable
 70
     0
  0
ENDTAB
  0
TABLE
  2
APPID
  5
9
330
0
100
AcDbSymbolTable
 70
     2
  0
APPID
  5
12
330
9
100
AcDbSymbolTableRecord
100
AcDbRegAppTableRecord
  2
ACAD
 70
     0
  0
APPID
  5
1E0
330
9
100
AcDbSymbolTableRecord
100
AcDbRegAppTableRecord
  2
CONTENTBLOCKICON
 70
     0
  0
ENDTAB
  0
TABLE
  2
DIMSTYLE
  5
A
330
0
100
AcDbSymbolTable
 70
     2
  0
DIMSTYLE
105
27
330
A
100
AcDbSymbolTableRecord
100
AcDbDimStyleTableRecord
  2
ISO-25
 70
     0
  3

  4

  5

  6

  7

 40
1.0
 41
2.5
 42
0.625
 43
3.75
 44
1.25
 45
0.0
 46
0.0
 47
0.0
 48
0.0
140
2.5
141
2.5
142
0.0
143
0.03937007874016
144
1.0
145
0.0
146
1.0
147
0.625
 71
     0
 72
     0
 73
     0
 74
     0
 75
     0
 76
     0
 77
     1
 78
     8
170
     0
171
     3
172
     1
173
     0
174
     0
175
     0
176
     0
177
     0
178
     0
270
     2
271
     2
272
     2
273
     2
274
     3
340
11
275
     0
280
     0
281
     0
282
     0
283
     0
284
     8
285
     0
286
     0
287
     3
288
     0
  0
DIMSTYLE
105
61
330
A
100
AcDbSymbolTableRecord
100
AcDbDimStyleTableRecord
  2
STAND-1
 70
     0
  3

  4

  5

  6

  7

 40
10.0
 41
10.0
 42
25.0
 43
7.0
 44
2.0
 45
0.0
 46
0.0
 47
0.0
 48
0.0
140
100.0
141
0.09
142
0.0
143
25.4
144
1.0
145
0.0
146
1.0
147
3.0
 71
     0
 72
     0
 73
     0
 74
     0
 75
     0
 76
     0
 77
     1
 78
     8
170
     0
171
     2
172
     1
173
     0
174
     0
175
     0
176
     1
177
     1
178
     1
270
     2
271
     1
272
     0
273
     2
274
     2
340
5F
275
     0
280
     0
281
     0
282
     0
283
     1
284
     0
285
     0
286
     0
287
     3
288
     0
  0
ENDTAB
  0
TABLE
  2
BLOCK_RECORD
  5
1
330
0
100
AcDbSymbolTable
 70
     4
  0
BLOCK_RECORD
  5
1F
102
{ACAD_XDICTIONARY
360
14A
102
}
330
1
100
AcDbSymbolTableRecord
100
AcDbBlockTableRecord
  2
*MODEL_SPACE
  0
BLOCK_RECORD
  5
50
102
{ACAD_XDICTIONARY
360
14C
102
}
330
1
100
AcDbSymbolTableRecord
100
AcDbBlockTableRecord
  2
*PAPER_SPACE
  0
BLOCK_RECORD
  5
158
330
1
100
AcDbSymbolTableRecord
100
AcDbBlockTableRecord
  2
FDKA
1001
ACAD
1000
DesignCenter Data
1002
{
1070
     1
1070
     4
1002
}
1001
CONTENTBLOCKICON
1071
        0
1004
28000000200000002000000001000800000000000004000000000000000000000000000000000000000000004000000080000000FF000000002000004020000080200000FF200000004000004040000080400000FF400000006000004060000080600000FF600000008000004080000080800000FF80000000A0000040A000
1004
0080A00000FFA0000000C0000040C0000080C00000FFC0000000FF000040FF000080FF0000FFFF0000000020004000200080002000FF002000002020004020200080202000FF202000004020004040200080402000FF402000006020004060200080602000FF602000008020004080200080802000FF80200000A0200040A0
1004
200080A02000FFA0200000C0200040C0200080C02000FFC0200000FF200040FF200080FF2000FFFF2000000040004000400080004000FF004000002040004020400080204000FF204000004040004040400080404000FF404000006040004060400080604000FF604000008040004080400080804000FF80400000A0400040
1004
A0400080A04000FFA0400000C0400040C0400080C04000FFC0400000FF400040FF400080FF4000FFFF4000000060004000600080006000FF006000002060004020600080206000FF206000004060004040600080406000FF406000006060004060600080606000FF606000008060004080600080806000FF80600000A06000
1004
40A0600080A06000FFA0600000C0600040C0600080C06000FFC0600000FF600040FF600080FF6000FFFF6000000080004000800080008000FF008000002080004020800080208000FF208000004080004040800080408000FF408000006080004060800080608000FF608000008080004080800080808000FF80800000A080
1004
0040A0800080A08000FFA0800000C0800040C0800080C08000FFC0800000FF800040FF800080FF8000FFFF80000000A0004000A0008000A000FF00A0000020A0004020A0008020A000FF20A0000040A0004040A0008040A000FF40A0000060A0004060A0008060A000FF60A0000080A0004080A0008080A000FF80A00000A0
1004
A00040A0A00080A0A000FFA0A00000C0A00040C0A00080C0A000FFC0A00000FFA00040FFA00080FFA000FFFFA0000000C0004000C0008000C000FF00C0000020C0004020C0008020C000FF20C0000040C0004040C0008040C000FF40C0000060C0004060C0008060C000FF60C0000080C0004080C0008080C000FF80C00000
1004
A0C00040A0C00080A0C000FFA0C00000C0C00040C0C00080C0C000FFC0C00000FFC00040FFC00080FFC000FFFFC0000000FF004000FF008000FF00FF00FF000020FF004020FF008020FF00FF20FF000040FF004040FF008040FF00FF40FF000060FF004060FF008060FF00FF60FF000080FF004080FF008080FF00FF80FF00
1004
00A0FF0040A0FF0080A0FF00FFA0FF0000C0FF0040C0FF0080C0FF00FFC0FF0000FFFF0040FFFF0080FFFF00FFFFFF0000000000000000000000000000000000000000000000000000000000000000000000000000000000000000000000000000000000000000000000000000000000000000000000000000000000FFFFFF
1004
FFFFFFFFFF0000000000000000000000000000000000000000000000FF0000000000000000FF000000000000000000000000000000000000000000FF00000000000000000000FF00000000000000000000000000000000000000FF000000000000000000000000FF000000000000000000000000000000000000FF00000000
1004
000000000000000000FF00000000000000000000000000000000FF0000000000000000000000000000FF000000000000000000000000000000FF00000000000000000000000000000000FF00000000000000000000000000FF000000000000000000000000000000000000FF0000000000000000000000FF00000000000000
1004
E0FCFCFCFCE000000000000000FF00000000000000000000FF0000000000000000FC4949FC0000000000000000FF00000000000000000000FF0000000000000000FCFCFCFC0000000000000000FF00000000000000000000FF0000000000000000FC4949FC0000000000000000FF00000000000000000000FF000000000000
1004
0000FCFCFCFC0000000000000000FF00000000000000000000FF00000000000000E0FCFCFCFCE000000000000000FF00000000000000000000FF00000000000000E0FCFCFCFCE000000000000000FF00000000000000000000FF0000000000000000FCFCFCFC0000000000000000FF00000000000000000000FF0000000000
1004
000000FC4949FC0000000000000000FF00000000000000000000FF0000000000000000FCFCFCFC0000000000000000FF00000000000000000000FF0000000000000000FC4949FC0000000000000000FF00000000000000000000FF00000000000000E0FCFCFCFCE000000000000000FF0000000000000000000000FF000000
1004
000000000000000000000000000000FF00000000000000000000000000FF00000000000000000000000000000000FF000000000000000000000000000000FF0000000000000000000000000000FF0000000000000000000000000000000000FF00000000000000000000000000FF0000000000000000000000000000000000
1004
FF000000000000000000000000FF00000000000000000000000000000000000000FF00000000000000000000FF000000000000000000000000000000000000000000FF0000000000000000FF0000000000000000000000000000000000000000000000FFFFFFFFFFFFFFFF0000000000000000000000000000000000000000
1004
0000000000000000000000000000000000000000000000000000000000000000000000000000000000000000000000000000000000000000
  0
BLOCK_RECORD
  5
5C3
330
1
100
AcDbSymbolTableRecord
100
AcDbBlockTableRecord
  2
*U1
  0
BLOCK_RECORD
  5
5EA
330
1
100
AcDbSymbolTableRecord
100
AcDbBlockTableRecord
  2
*U2
  0
BLOCK_RECORD
  5
6D5
330
1
100
AcDbSymbolTableRecord
100
AcDbBlockTableRecord
  2
*U3
  0
ENDTAB
  0
ENDSEC
  0
SECTION
  2
BLOCKS
  0
BLOCK
  5
20
330
1F
100
AcDbEntity
  8
0
100
AcDbBlockBegin
  2
*MODEL_SPACE
 70
     0
 10
0.0
 20
0.0
 30
0.0
  3
*MODEL_SPACE
  1

  0
ENDBLK
  5
21
330
1F
100
AcDbEntity
  8
0
100
AcDbBlockEnd
  0
BLOCK
  5
52
330
50
100
AcDbEntity
 67
     1
  8
0
100
AcDbBlockBegin
  2
*PAPER_SPACE
 70
     0
 10
0.0
 20
0.0
 30
0.0
  3
*PAPER_SPACE
  1

  0
ENDBLK
  5
53
330
50
100
AcDbEntity
 67
     1
  8
0
100
AcDbBlockEnd
  0
BLOCK
  5
159
330
158
100
AcDbEntity
  8
0
100
AcDbBlockBegin
  2
FDKA
 70
     0
 10
0.0
 20
0.0
 30
0.0
  3
FDKA
  1

  0
INSERT
  5
551
330
158
100
AcDbEntity
  8
HATCH
  6
CONTINUOUS
 62
     2
100
AcDbBlockReference
  2
*U1
 10
0.0
 20
0.0
 30
0.0
1001
ACAD
1002
{
1000
R14_HATCH_DATA
1000
551
1011
1.0
1021
0.0
1031
0.0
1011
0.0
1021
1.0
1031
0.0
1011
0.0
1021
0.0
1031
1.0
1040
0.0
1010
0.0
1020
0.0
1030
1.0
1000
SOLID
1070
     1
1070
     1
1071
       18
1071
        7
1070
     0
1070
     1
1071
        4
1040
1834.000006517407
1040
3593.000002519094
1040
1834.000006517408
1040
3627.000002519094
1040
1624.000006517408
1040
3627.000002519094
1040
1624.000006517408
1040
3593.000002519094
1071
        1
1005
5B3
1071
        7
1070
     0
1070
     1
1071
        4
1040
2161.000006517405
1040
3595.000002519093
1040
2161.000006517406
1040
3629.000002519091
1040
1951.000006517408
1040
3629.000002519091
1040
1951.000006517408
1040
3595.000002519093
1071
        1
1005
55E
1071
        7
1070
     0
1070
     1
1071
        4
1040
2161.000006517406
1040
3261.000002519093
1040
2161.000006517406
1040
3295.000002519093
1040
1951.000006517408
1040
3295.000002519093
1040
1951.000006517408
1040
3261.000002519093
1071
        1
1005
563
1071
        7
1070
     0
1070
     1
1071
        4
1040
1834.000006517408
1040
3261.000002519093
1040
1834.000006517408
1040
3295.000002519093
1040
1624.000006517408
1040
3295.000002519093
1040
1624.000006517408
1040
3261.000002519093
1071
        1
1005
5B2
1071
        7
1070
     0
1070
     1
1071
        4
1040
1834.000006517408
1040
2927.000002519092
1040
1834.000006517408
1040
2961.000002519093
1040
1624.000006517408
1040
2961.000002519093
1040
1624.000006517408
1040
2927.000002519093
1071
        1
1005
5B1
1071
        7
1070
     0
1070
     1
1071
        4
1040
1951.000006517408
1040
2961.000002519093
1040
1951.000006517408
1040
2927.000002519093
1040
2161.000006517406
1040
2927.000002519093
1040
2161.000006517406
1040
2961.000002519092
1071
        1
1005
56C
1071
        7
1070
     0
1070
     1
1071
        4
1040
2161.000006517406
1040
2593.000002519093
1040
2161.000006517406
1040
2627.000002519093
1040
1951.000006517408
1040
2627.000002519093
1040
1951.000006517408
1040
2593.000002519093
1071
        1
1005
571
1071
        7
1070
     0
1070
     1
1071
        4
1040
1834.000006517408
1040
2593.000002519093
1040
1834.000006517408
1040
2627.000002519093
1040
1624.000006517408
1040
2627.000002519093
1040
1624.000006517408
1040
2593.000002519093
1071
        1
1005
5B0
1071
        7
1070
     0
1070
     1
1071
        4
1040
1834.000006517408
1040
2259.000002519092
1040
1834.000006517408
1040
2293.000002519093
1040
1624.000006517408
1040
2293.000002519093
1040
1624.000006517408
1040
2259.000002519092
1071
        1
1005
5AF
1071
        7
1070
     0
1070
     1
1071
        4
1040
2161.000006517406
1040
2259.000002519092
1040
2161.000006517406
1040
2293.000002519093
1040
1951.000006517408
1040
2293.000002519093
1040
1951.000006517407
1040
2259.000002519092
1071
        1
1005
57D
1071
        7
1070
     0
1070
     1
1071
        4
1040
1951.000006517408
1040
1959.000002519093
1040
1951.000006517407
1040
1925.000002519093
1040
2161.000006517406
1040
1925.000002519093
1040
2161.000006517406
1040
1959.000002519093
1071
        1
1005
582
1071
        7
1070
     0
1070
     1
1071
        4
1040
1624.000006517408
1040
1959.000002519093
1040
1624.000006517408
1040
1925.000002519093
1040
1834.000006517408
1040
1925.000002519093
1040
1834.000006517408
1040
1959.000002519093
1071
        1
1005
5AE
1071
        7
1070
     0
1070
     1
1071
        4
1040
1624.000006517408
1040
1627.000002519093
1040
1624.000006517408
1040
1593.000002519092
1040
1834.000006517408
1040
1593.000002519093
1040
1834.000006517408
1040
1627.000002519092
1071
        1
1005
5AD
1071
        7
1070
     0
1070
     1
1071
        4
1040
1951.000006517408
1040
1627.000002519093
1040
1951.000006517408
1040
1593.000002519093
1040
2161.000006517406
1040
1593.000002519093
1040
2161.000006517406
1040
1627.000002519093
1071
        1
1005
58B
1071
        7
1070
     0
1070
     1
1071
        4
1040
2261.2963889249
1040
2551.500002519095
1040
2227.296388924901
1040
2551.500002519095
1040
2227.296388924901
1040
1668.500002519095
1040
2261.296388924901
1040
1668.500002519095
1071
        1
1005
590
1071
        7
1070
     0
1070
     1
1071
        4
1040
2227.296388924902
1040
2668.500002519095
1040
2261.296388924902
1040
2668.500002519095
1040
2261.296388924902
1040
3551.500002519093
1040
2227.296388924902
1040
3551.500002519093
1071
        1
1005
559
1071
        7
1070
     0
1070
     1
1071
        4
1040
1557.2963889249
1040
3551.500002519093
1040
1523.2963889249
1040
3551.500002519093
1040
1523.2963889249
1040
2668.500002519095
1040
1557.2963889249
1040
2668.500002519095
1071
        1
1005
5A1
1071
        7
1070
     0
1070
     1
1071
        4
1040
1523.2963889249
1040
1668.500002519095
1040
1557.2963889249
1040
1668.500002519095
1040
1557.2963889249
1040
2551.500002519094
1040
1523.2963889249
1040
2551.500002519094
1071
        1
1005
5AB
1070
     0
1070
     1
1040
5.092435392902317
1071
       18
1040
1687.927693777885
1040
3607.602589030932
1040
0.0
1040
2029.368123170199
1040
3607.602589030932
1040
0.0
1040
2029.368123170199
1040
3276.594276172254
1040
0.0
1040
1708.312193438396
1040
3276.594276172254
1040
0.0
1040
1703.216068523266
1040
2935.401117167824
1040
0.0
1040
2029.368123170199
1040
2945.585994587487
1040
0.0
1040
2065.040997576092
1040
2609.485258655935
1040
0.0
1040
1733.79281801403
1040
2604.392804309151
1040
0.0
1040
1718.504443268648
1040
2273.38449145048
1040
0.0
1040
2029.368123170199
1040
2273.38449145048
1040
0.0
1040
2039.560373000458
1040
1947.468632938591
1040
0.0
1040
1733.79281801403
1040
1942.37620986571
1040
0.0
1040
1738.888942929152
1040
1611.367897007039
1040
0.0
1040
2049.75262283071
1040
1611.367897007039
1040
0.0
1040
2248.501494520664
1040
1855.804798709432
1040
0.0
1040
2238.309244690404
1040
2869.199460850868
1040
0.0
1040
1545.236196154328
1040
2879.384338270531
1040
0.0
1040
1535.043946324076
1040
2181.720657221322
1040
0.0
1002
}
  0
INSERT
  5
552
330
158
100
AcDbEntity
  8
HATCH
  6
CONTINUOUS
 62
     1
100
AcDbBlockReference
  2
*U2
 10
0.0
 20
0.0
 30
0.0
1001
ACAD
1002
{
1000
R14_HATCH_DATA
1000
552
1011
1.0
1021
0.0
1031
0.0
1011
0.0
1021
1.0
1031
0.0
1011
0.0
1021
0.0
1031
1.0
1040
0.0
1010
0.0
1020
0.0
1030
1.0
1000
SOLID
1070
     1
1070
     0
1071
       20
1071
        7
1070
     1
1070
     1
1071
        8
1040
1595.500006517406
1040
3661.000002519094
1040
0.4142135623730951
1040
1591.500006517406
1040
3665.000002519094
1040
0.0
1040
1489.500006517407
1040
3665.000002519095
1040
0.4142135623730951
1040
1485.500006517407
1040
3661.000002519095
1040
0.0
1040
1485.500006517407
1040
3559.000002519094
1040
0.4142135623730951
1040
1489.500006517407
1040
3555.000002519094
1040
0.0
1040
1591.500006517409
1040
3555.000002519094
1040
0.4142135623730951
1040
1595.500006517409
1040
3559.000002519094
1040
0.0
1071
        0
1071
       22
1070
     1
1070
     1
1071
        2
1040
1496.500006517406
1040
3640.000002519094
1040
-1.0
1040
1524.500006517406
1040
3640.000002519094
1040
-1.0
1071
        0
1071
       22
1070
     1
1070
     1
1071
        2
1040
1584.500006517409
1040
3580.000002519094
1040
-1.0
1040
1556.50000651741
1040
3580.000002519094
1040
-1.0
1071
        0
1071
        7
1070
     1
1070
     1
1071
        8
1040
2299.500006517407
1040
3661.000002519095
1040
0.4142135623730951
1040
2295.500006517407
1040
3665.000002519095
1040
0.0
1040
2193.500006517408
1040
3665.000002519095
1040
0.4142135623730951
1040
2189.500006517408
1040
3661.000002519095
1040
0.0
1040
2189.500006517408
1040
3559.000002519096
1040
0.4142135623730951
1040
2193.500006517408
1040
3555.000002519096
1040
0.0
1040
2295.50000651741
1040
3555.000002519096
1040
0.4142135623730951
1040
2299.50000651741
1040
3559.000002519096
1040
0.0
1071
        0
1071
       22
1070
     1
1070
     1
1071
        2
1040
2200.500006517407
1040
3640.000002519094
1040
-1.0
1040
2228.500006517406
1040
3640.000002519094
1040
-1.0
1071
        0
1071
       22
1070
     1
1070
     1
1071
        2
1040
2288.500006517411
1040
3580.000002519096
1040
-1.0
1040
2260.500006517411
1040
3580.000002519096
1040
-1.0
1071
        0
1071
        7
1070
     1
1070
     1
1071
        8
1040
2299.500006517407
1040
2661.000002519095
1040
0.4142135623730951
1040
2295.500006517407
1040
2665.000002519095
1040
0.0
1040
2193.500006517408
1040
2665.000002519096
1040
0.4142135623730951
1040
2189.500006517408
1040
2661.000002519095
1040
0.0
1040
2189.500006517408
1040
2559.000002519095
1040
0.4142135623730951
1040
2193.500006517408
1040
2555.000002519095
1040
0.0
1040
2295.50000651741
1040
2555.000002519095
1040
0.4142135623730951
1040
2299.50000651741
1040
2559.000002519095
1040
0.0
1071
        0
1071
       22
1070
     1
1070
     1
1071
        2
1040
2200.500006517407
1040
2640.000002519094
1040
-1.0
1040
2228.500006517406
1040
2640.000002519094
1040
-1.0
1071
        0
1071
       22
1070
     1
1070
     1
1071
        2
1040
2288.500006517411
1040
2580.000002519096
1040
-1.0
1040
2260.500006517411
1040
2580.000002519096
1040
-1.0
1071
        0
1071
        7
1070
     1
1070
     1
1071
        8
1040
1595.500006517406
1040
2661.000002519093
1040
0.4142135623730951
1040
1591.500006517406
1040
2665.000002519093
1040
0.0
1040
1489.500006517407
1040
2665.000002519095
1040
0.4142135623730951
1040
1485.500006517407
1040
2661.000002519095
1040
0.0
1040
1485.500006517407
1040
2559.000002519095
1040
0.4142135623730951
1040
1489.500006517407
1040
2555.000002519094
1040
0.0
1040
1591.500006517409
1040
2555.000002519094
1040
0.4142135623730951
1040
1595.500006517409
1040
2559.000002519095
1040
0.0
1071
        0
1071
       22
1070
     1
1070
     1
1071
        2
1040
1496.500006517406
1040
2640.000002519093
1040
-1.0
1040
1524.500006517406
1040
2640.000002519093
1040
-1.0
1071
        0
1071
       22
1070
     1
1070
     1
1071
        2
1040
1584.500006517409
1040
2580.000002519094
1040
-1.0
1040
1556.50000651741
1040
2580.000002519094
1040
-1.0
1071
        0
1071
        7
1070
     1
1070
     1
1071
        8
1040
1595.500006517406
1040
1661.000002519093
1040
0.4142135623730951
1040
1591.500006517406
1040
1665.000002519093
1040
0.0
1040
1489.500006517407
1040
1665.000002519093
1040
0.4142135623730951
1040
1485.500006517407
1040
1661.000002519093
1040
0.0
1040
1485.500006517407
1040
1559.000002519093
1040
0.4142135623730951
1040
1489.500006517407
1040
1555.000002519093
1040
0.0
1040
1591.500006517409
1040
1555.000002519093
1040
0.4142135623730951
1040
1595.500006517409
1040
1559.000002519093
1040
0.0
1071
        0
1071
       22
1070
     1
1070
     1
1071
        2
1040
1496.500006517406
1040
1640.000002519093
1040
-1.0
1040
1524.500006517406
1040
1640.000002519093
1040
-1.0
1071
        0
1071
       22
1070
     1
1070
     1
1071
        2
1040
1584.500006517409
1040
1580.000002519094
1040
-1.0
1040
1556.50000651741
1040
1580.000002519094
1040
-1.0
1071
        0
1071
        7
1070
     1
1070
     1
1071
        8
1040
2299.500006517407
1040
1661.000002519093
1040
0.4142135623730951
1040
2295.500006517407
1040
1665.000002519093
1040
0.0
1040
2193.500006517408
1040
1665.000002519095
1040
0.4142135623730951
1040
2189.500006517408
1040
1661.000002519094
1040
0.0
1040
2189.500006517408
1040
1559.000002519094
1040
0.4142135623730951
1040
2193.500006517408
1040
1555.000002519094
1040
0.0
1040
2295.50000651741
1040
1555.000002519094
1040
0.4142135623730951
1040
2299.50000651741
1040
1559.000002519094
1040
0.0
1071
        0
1071
       22
1070
     1
1070
     1
1071
        2
1040
2288.500006517411
1040
1580.000002519095
1040
-1.0
1040
2260.500006517411
1040
1580.000002519095
1040
-1.0
1071
        0
1071
       22
1070
     1
1070
     1
1071
        2
1040
2200.500006517407
1040
1640.000002519093
1040
-1.0
1040
2228.500006517406
1040
1640.000002519093
1040
-1.0
1071
        0
1071
        7
1070
     1
1070
     1
1071
       22
1040
2196.000006517408
1040
2555.000002519095
1040
0.0
1040
2193.500006517408
1040
2555.000002519095
1040
-0.4142135623730951
1040
2189.500006517408
1040
2559.000002519095
1040
0.0
1040
2189.500006517408
1040
2661.000002519095
1040
-0.4142135623730951
1040
2193.500006517408
1040
2665.000002519096
1040
0.0
1040
2196.000006517408
1040
2665.000002519095
1040
0.0
1040
2196.000006517408
1040
3555.000002519096
1040
0.0
1040
2193.500006517408
1040
3555.000002519096
1040
-0.4142135623730951
1040
2189.500006517408
1040
3559.000002519096
1040
0.0
1040
2189.500006517408
1040
3661.000002519095
1040
-0.4142135623730951
1040
2193.500006517408
1040
3665.000002519095
1040
0.0
1040
2196.000006517408
1040
3665.000002519095
1040
0.0
1040
2196.000006517408
1040
3721.000002519093
1040
0.0
1040
2171.000006517408
1040
3721.000002519093
1040
0.0
1040
2171.000006517407
1040
1503.000002519093
1040
0.0
1040
2196.000006517408
1040
1503.000002519092
1040
0.0
1040
2196.000006517408
1040
1555.000002519094
1040
0.0
1040
2193.500006517408
1040
1555.000002519094
1040
-0.4142135623730951
1040
2189.500006517408
1040
1559.000002519094
1040
0.0
1040
2189.500006517408
1040
1661.000002519094
1040
-0.4142135623730951
1040
2193.500006517408
1040
1665.000002519095
1040
0.0
1040
2196.000006517408
1040
1665.000002519095
1040
0.0
1071
        0
1071
        7
1070
     1
1070
     1
1071
       22
1040
1614.000006517407
1040
3721.000002519093
1040
0.0
1040
1589.000006517408
1040
3721.000002519093
1040
0.0
1040
1589.000006517408
1040
3665.000002519093
1040
0.0
1040
1591.500006517405
1040
3665.000002519094
1040
-0.4142135623731449
1040
1595.500006517406
1040
3661.000002519094
1040
0.0
1040
1595.500006517409
1040
3559.000002519094
1040
-0.4142135623730951
1040
1591.500006517409
1040
3555.000002519094
1040
0.0
1040
1589.000006517408
1040
3555.000002519094
1040
0.0
1040
1589.000006517408
1040
2665.000002519093
1040
0.0
1040
1591.500006517406
1040
2665.000002519093
1040
-0.4142135623730951
1040
1595.500006517406
1040
2661.000002519093
1040
0.0
1040
1595.500006517409
1040
2559.000002519095
1040
-0.4142135623730951
1040
1591.500006517409
1040
2555.000002519094
1040
0.0
1040
1589.000006517408
1040
2555.000002519094
1040
0.0
1040
1589.000006517408
1040
1665.000002519093
1040
0.0
1040
1591.500006517406
1040
1665.000002519093
1040
-0.4142135623730951
1040
1595.500006517406
1040
1661.000002519093
1040
0.0
1040
1595.500006517409
1040
1559.000002519093
1040
-0.4142135623730951
1040
1591.500006517409
1040
1555.000002519093
1040
0.0
1040
1589.000006517408
1040
1555.000002519093
1040
0.0
1040
1589.000006517408
1040
1503.000002519093
1040
0.0
1040
1614.000006517408
1040
1503.000002519093
1040
0.0
1071
        0
1070
     0
1070
     1
1040
5.092435392902317
1071
       20
1040
1535.043946324076
1040
3622.879889523472
1040
0.0
1040
1535.043946324076
1040
3622.879889523472
1040
0.0
1040
1535.043946324076
1040
3622.879889523472
1040
0.0
1040
2228.116994860152
1040
3607.602589030932
1040
0.0
1040
2228.116994860152
1040
3607.602589030932
1040
0.0
1040
2228.116994860152
1040
3607.602589030932
1040
0.0
1040
2217.9247450299
1040
2584.023080743729
1040
0.0
1040
2217.9247450299
1040
2584.023080743729
1040
0.0
1040
2217.9247450299
1040
2584.023080743729
1040
0.0
1040
1509.563321748442
1040
2604.392804309151
1040
0.0
1040
1509.563321748442
1040
2604.392804309151
1040
0.0
1040
1509.563321748442
1040
2604.392804309151
1040
0.0
1040
1535.043946324076
1040
1611.367897007039
1040
0.0
1040
1535.043946324076
1040
1611.367897007039
1040
0.0
1040
1535.043946324076
1040
1611.367897007039
1040
0.0
1040
2243.405369605534
1040
1590.998142167714
1040
0.0
1040
2243.405369605534
1040
1590.998142167714
1040
0.0
1040
2243.405369605534
1040
1590.998142167714
1040
0.0
1040
2182.251870624008
1040
1962.745933431135
1040
0.0
1040
1606.389695135854
1040
2090.056822992162
1040
0.0
1002
}
  0
INSERT
  5
553
330
158
100
AcDbEntity
  8
HATCH
  6
CONTINUOUS
 62
   251
100
AcDbBlockReference
  2
*U3
 10
0.0
 20
0.0
 30
0.0
1001
ACAD
1002
{
1000
R14_HATCH_DATA
1000
553
1011
1.0
1021
0.0
1031
0.0
1011
0.0
1021
1.0
1031
0.0
1011
0.0
1021
0.0
1031
1.0
1040
0.0
1010
0.0
1020
0.0
1030
1.0
1000
SOLID
1070
     1
1070
     1
1071
        1
1071
        7
1070
     0
1070
     1
1071
        4
1040
1941.000006517408
1040
3695.000002519094
1040
1844.000006517408
1040
3695.000002519092
1040
1844.000006517408
1040
1525.000002519093
1040
1941.000006517408
1040
1525.000002519093
1071
        1
1005
591
1070
     0
1070
     1
1040
5.092435392902317
1071
        1
1040
1896.868875376902
1040
2935.401117167824
1040
0.0
1002
}
  0
POLYLINE
  5
554
330
158
100
AcDbEntity
  8
SAFETY
 48
5.0
100
AcDb2dPolyline
 66
     1
 10
0.0
 20
0.0
 30
-1379.051287506078
  0
VERTEX
  5
6DC
330
554
100
AcDbEntity
  8
SAFETY
 48
5.0
100
AcDbVertex
100
AcDb2dVertex
 10
1238.463351783076
 20
92.47644880359077
 30
-1379.051287506078
  0
VERTEX
  5
6DD
330
554
100
AcDbEntity
  8
SAFETY
 48
5.0
100
AcDbVertex
100
AcDb2dVertex
 10
1630.963351783077
 20
22.97644880359166
 30
-1379.051287506078
 42
0.0878517250587143
  0
VERTEX
  5
6DE
330
554
100
AcDbEntity
  8
SAFETY
 48
5.0
100
AcDbVertex
100
AcDb2dVertex
 10
2154.036661251736
 20
22.97644880359166
 30
-1379.051287506078
  0
VERTEX
  5
6DF
330
554
100
AcDbEntity
  8
SAFETY
 48
5.0
100
AcDbVertex
100
AcDb2dVertex
 10
2546.536661251737
 20
92.47644880359077
 30
-1379.051287506078
 42
0.3637662367490874
  0
VERTEX
  5
6E0
330
554
100
AcDbEntity
  8
SAFETY
 48
5.0
100
AcDbVertex
100
AcDb2dVertex
 10
3785.000006517405
 20
1569.500002519093
 30
-1379.051287506078
  0
VERTEX
  5
6E1
330
554
100
AcDbEntity
  8
SAFETY
 48
5.0
100
AcDbVertex
100
AcDb2dVertex
 10
3785.000006517405
 20
3650.500002519094
 30
-1379.051287506078
 42
0.3637662367490872
  0
VERTEX
  5
6E2
330
554
100
AcDbEntity
  8
SAFETY
 48
5.0
100
AcDbVertex
100
AcDb2dVertex
 10
2546.536661251737
 20
5127.523556234599
 30
-1379.051287506078
  0
VERTEX
  5
6E3
330
554
100
AcDbEntity
  8
SAFETY
 48
5.0
100
AcDbVertex
100
AcDb2dVertex
 10
2154.036661251736
 20
5197.023556234595
 30
-1379.051287506078
 42
0.0878517250587142
  0
VERTEX
  5
6E4
330
554
100
AcDbEntity
  8
SAFETY
 48
5.0
100
AcDbVertex
100
AcDb2dVertex
 10
1630.963351783077
 20
5197.023556234595
 30
-1379.051287506078
  0
VERTEX
  5
6E5
330
554
100
AcDbEntity
  8
SAFETY
 48
5.0
100
AcDbVertex
100
AcDb2dVertex
 10
1238.463351783076
 20
5127.523556234599
 30
-1379.051287506078
 42
0.3637662367490876
  0
VERTEX
  5
6E6
330
554
100
AcDbEntity
  8
SAFETY
 48
5.0
100
AcDbVertex
100
AcDb2dVertex
 10
0.0000065174062911
 20
3650.500002519094
 30
-1379.051287506078
  0
VERTEX
  5
6E7
330
554
100
AcDbEntity
  8
SAFETY
 48
5.0
100
AcDbVertex
100
AcDb2dVertex
 10
0.0000065174062911
 20
1569.500002519093
 30
-1379.051287506078
 42
0.3696596124907309
  0
VERTEX
  5
6E8
330
554
100
AcDbEntity
  8
SAFETY
 48
5.0
100
AcDbVertex
100
AcDb2dVertex
 10
1269.208864925043
 20
87.3611935803037
 30
-1379.051287506078
  0
SEQEND
  5
6E9
330
554
100
AcDbEntity
  8
SAFETY
 48
5.0
  0
POLYLINE
  5
555
330
158
100
AcDbEntity
  8
OBJECT
100
AcDb2dPolyline
 66
     1
 10
0.0
 20
0.0
 30
-1379.051287506078
  0
VERTEX
  5
6EA
330
555
100
AcDbEntity
  8
OBJECT
100
AcDbVertex
100
AcDb2dVertex
 10
2267.910767202564
 20
3555.000002519094
 30
-1379.051287506078
 42
-0.2482675702532814
  0
VERTEX
  5
6EB
330
555
100
AcDbEntity
  8
OBJECT
100
AcDbVertex
100
AcDb2dVertex
 10
2261.296388924902
 20
3551.500002519093
 30
-1379.051287506078
  0
VERTEX
  5
6EC
330
555
100
AcDbEntity
  8
OBJECT
100
AcDbVertex
100
AcDb2dVertex
 10
2227.296388924902
 20
3551.500002519093
 30
-1379.051287506078
 42
-0.2482675702532814
  0
VERTEX
  5
6ED
330
555
100
AcDbEntity
  8
OBJECT
100
AcDbVertex
100
AcDb2dVertex
 10
2220.68201064724
 20
3555.000002519094
 30
-1379.051287506078
  0
SEQEND
  5
6EE
330
555
100
AcDbEntity
  8
OBJECT
  0
POLYLINE
  5
556
330
158
100
AcDbEntity
  8
OBJECT
100
AcDb2dPolyline
 66
     1
 10
0.0
 20
0.0
 30
-1379.051287506078
  0
VERTEX
  5
6EF
330
556
100
AcDbEntity
  8
OBJECT
100
AcDbVertex
100
AcDb2dVertex
 10
2267.910767202564
 20
2665.000002519093
 30
-1379.051287506078
 42
0.2482675702532814
  0
VERTEX
  5
6F0
330
556
100
AcDbEntity
  8
OBJECT
100
AcDbVertex
100
AcDb2dVertex
 10
2261.296388924902
 20
2668.500002519095
 30
-1379.051287506078
  0
VERTEX
  5
6F1
330
556
100
AcDbEntity
  8
OBJECT
100
AcDbVertex
100
AcDb2dVertex
 10
2227.296388924902
 20
2668.500002519095
 30
-1379.051287506078
 42
0.2482675702532814
  0
VERTEX
  5
6F2
330
556
100
AcDbEntity
  8
OBJECT
100
AcDbVertex
100
AcDb2dVertex
 10
2220.68201064724
 20
2665.000002519093
 30
-1379.051287506078
  0
SEQEND
  5
6F3
330
556
100
AcDbEntity
  8
OBJECT
  0
POLYLINE
  5
557
330
158
100
AcDbEntity
  8
OBJECT
100
AcDb2dPolyline
 66
     1
 10
0.0
 20
0.0
 30
-1379.051287506078
  0
VERTEX
  5
6F4
330
557
100
AcDbEntity
  8
OBJECT
100
AcDbVertex
100
AcDb2dVertex
 10
2267.910767202562
 20
2555.000002519093
 30
-1379.051287506078
 42
-0.2482675702532814
  0
VERTEX
  5
6F5
330
557
100
AcDbEntity
  8
OBJECT
100
AcDbVertex
100
AcDb2dVertex
 10
2261.296388924901
 20
2551.500002519095
 30
-1379.051287506078
  0
VERTEX
  5
6F6
330
557
100
AcDbEntity
  8
OBJECT
100
AcDbVertex
100
AcDb2dVertex
 10
2227.296388924901
 20
2551.500002519095
 30
-1379.051287506078
 42
-0.2482675702532814
  0
VERTEX
  5
6F7
330
557
100
AcDbEntity
  8
OBJECT
100
AcDbVertex
100
AcDb2dVertex
 10
2220.682010647239
 20
2555.000002519093
 30
-1379.051287506078
  0
SEQEND
  5
6F8
330
557
100
AcDbEntity
  8
OBJECT
  0
POLYLINE
  5
558
330
158
100
AcDbEntity
  8
OBJECT
100
AcDb2dPolyline
 66
     1
 10
0.0
 20
0.0
 30
-1379.051287506078
  0
VERTEX
  5
6F9
330
558
100
AcDbEntity
  8
OBJECT
100
AcDbVertex
100
AcDb2dVertex
 10
2196.000006517408
 20
3555.000002519094
 30
-1379.051287506078
  0
VERTEX
  5
6FA
330
558
100
AcDbEntity
  8
OBJECT
100
AcDbVertex
100
AcDb2dVertex
 10
2196.000006517408
 20
2665.000002519096
 30
-1379.051287506078
  0
SEQEND
  5
6FB
330
558
100
AcDbEntity
  8
OBJECT
  0
POLYLINE
  5
559
330
158
100
AcDbEntity
  8
OBJECT
100
AcDb2dPolyline
 66
     1
 10
0.0
 20
0.0
 30
-1379.051287506078
 70
     1
  0
VERTEX
  5
6FC
330
559
100
AcDbEntity
  8
OBJECT
100
AcDbVertex
100
AcDb2dVertex
 10
2261.296388924902
 20
3551.500002519093
 30
-1379.051287506078
  0
VERTEX
  5
6FD
330
559
100
AcDbEntity
  8
OBJECT
100
AcDbVertex
100
AcDb2dVertex
 10
2261.296388924902
 20
2668.500002519095
 30
-1379.051287506078
  0
VERTEX
  5
6FE
330
559
100
AcDbEntity
  8
OBJECT
100
AcDbVertex
100
AcDb2dVertex
 10
2227.296388924902
 20
2668.500002519095
 30
-1379.051287506078
  0
VERTEX
  5
6FF
330
559
100
AcDbEntity
  8
OBJECT
100
AcDbVertex
100
AcDb2dVertex
 10
2227.296388924902
 20
3551.500002519093
 30
-1379.051287506078
  0
SEQEND
  5
700
330
559
100
AcDbEntity
  8
OBJECT
  0
LINE
  5
55A
330
158
100
AcDbEntity
  8
OBJECT
100
AcDbLine
 10
2169.000006517408
 20
3637.000002519093
 30
-1379.051287506078
 11
2169.000006517408
 21
3587.000002519093
 31
-1379.051287506078
  0
POLYLINE
  5
55B
330
158
100
AcDbEntity
  8
OBJECT
100
AcDb2dPolyline
 66
     1
 10
0.0
 20
0.0
 30
-1379.051287506078
  0
VERTEX
  5
701
330
55B
100
AcDbEntity
  8
OBJECT
100
AcDbVertex
100
AcDb2dVertex
 10
2171.000006517408
 20
3637.000002519093
 30
-1379.051287506078
  0
VERTEX
  5
702
330
55B
100
AcDbEntity
  8
OBJECT
100
AcDbVertex
100
AcDb2dVertex
 10
2169.000006517408
 20
3637.000002519093
 30
-1379.051287506078
 42
0.4142135623730952
  0
VERTEX
  5
703
330
55B
100
AcDbEntity
  8
OBJECT
100
AcDbVertex
100
AcDb2dVertex
 10
2161.000006517406
 20
3629.000002519091
 30
-1379.051287506078
  0
VERTEX
  5
704
330
55B
100
AcDbEntity
  8
OBJECT
100
AcDbVertex
100
AcDb2dVertex
 10
2161.000006517406
 20
3595.000002519093
 30
-1379.051287506078
 42
0.4142135623730952
  0
VERTEX
  5
705
330
55B
100
AcDbEntity
  8
OBJECT
100
AcDbVertex
100
AcDb2dVertex
 10
2169.000006517408
 20
3587.000002519093
 30
-1379.051287506078
  0
VERTEX
  5
706
330
55B
100
AcDbEntity
  8
OBJECT
100
AcDbVertex
100
AcDb2dVertex
 10
2171.000006517408
 20
3587.000002519093
 30
-1379.051287506078
  0
SEQEND
  5
707
330
55B
100
AcDbEntity
  8
OBJECT
  0
POLYLINE
  5
55C
330
158
100
AcDbEntity
  8
OBJECT
100
AcDb2dPolyline
 66
     1
 10
0.0
 20
0.0
 30
-1379.051287506078
  0
VERTEX
  5
708
330
55C
100
AcDbEntity
  8
OBJECT
100
AcDbVertex
100
AcDb2dVertex
 10
1941.000006517408
 20
3637.000002519093
 30
-1379.051287506078
  0
VERTEX
  5
709
330
55C
100
AcDbEntity
  8
OBJECT
100
AcDbVertex
100
AcDb2dVertex
 10
1943.000006517408
 20
3637.000002519093
 30
-1379.051287506078
 42
-0.4142135623730952
  0
VERTEX
  5
70A
330
55C
100
AcDbEntity
  8
OBJECT
100
AcDbVertex
100
AcDb2dVertex
 10
1951.000006517408
 20
3629.000002519091
 30
-1379.051287506078
  0
VERTEX
  5
70B
330
55C
100
AcDbEntity
  8
OBJECT
100
AcDbVertex
100
AcDb2dVertex
 10
1951.000006517408
 20
3595.000002519093
 30
-1379.051287506078
 42
-0.4142135623730952
  0
VERTEX
  5
70C
330
55C
100
AcDbEntity
  8
OBJECT
100
AcDbVertex
100
AcDb2dVertex
 10
1943.000006517408
 20
3587.000002519093
 30
-1379.051287506078
  0
VERTEX
  5
70D
330
55C
100
AcDbEntity
  8
OBJECT
100
AcDbVertex
100
AcDb2dVertex
 10
1941.000006517408
 20
3587.000002519093
 30
-1379.051287506078
  0
SEQEND
  5
70E
330
55C
100
AcDbEntity
  8
OBJECT
  0
LINE
  5
55D
330
158
100
AcDbEntity
  8
OBJECT
100
AcDbLine
 10
1943.000006517408
 20
3637.000002519093
 30
-1379.051287506078
 11
1943.000006517408
 21
3587.000002519093
 31
-1379.051287506078
  0
POLYLINE
  5
55E
330
158
100
AcDbEntity
  8
OBJECT
100
AcDb2dPolyline
 66
     1
 10
0.0
 20
0.0
 30
-1379.051287506078
 70
     1
  0
VERTEX
  5
70F
330
55E
100
AcDbEntity
  8
OBJECT
100
AcDbVertex
100
AcDb2dVertex
 10
1951.000006517408
 20
3629.000002519091
 30
-1379.051287506078
  0
VERTEX
  5
710
330
55E
100
AcDbEntity
  8
OBJECT
100
AcDbVertex
100
AcDb2dVertex
 10
2161.000006517406
 20
3629.000002519091
 30
-1379.051287506078
  0
VERTEX
  5
711
330
55E
100
AcDbEntity
  8
OBJECT
100
AcDbVertex
100
AcDb2dVertex
 10
2161.000006517406
 20
3595.000002519093
 30
-1379.051287506078
  0
VERTEX
  5
712
330
55E
100
AcDbEntity
  8
OBJECT
100
AcDbVertex
100
AcDb2dVertex
 10
1951.000006517408
 20
3595.000002519093
 30
-1379.051287506078
  0
SEQEND
  5
713
330
55E
100
AcDbEntity
  8
OBJECT
  0
LINE
  5
55F
330
158
100
AcDbEntity
  8
OBJECT
100
AcDbLine
 10
2169.000006517408
 20
3303.000002519093
 30
-1379.051287506078
 11
2169.000006517408
 21
3253.000002519093
 31
-1379.051287506078
  0
POLYLINE
  5
560
330
158
100
AcDbEntity
  8
OBJECT
100
AcDb2dPolyline
 66
     1
 10
0.0
 20
0.0
 30
-1379.051287506078
  0
VERTEX
  5
714
330
560
100
AcDbEntity
  8
OBJECT
100
AcDbVertex
100
AcDb2dVertex
 10
2171.000006517408
 20
3303.000002519093
 30
-1379.051287506078
  0
VERTEX
  5
715
330
560
100
AcDbEntity
  8
OBJECT
100
AcDbVertex
100
AcDb2dVertex
 10
2169.000006517408
 20
3303.000002519093
 30
-1379.051287506078
 42
0.4142135623730952
  0
VERTEX
  5
716
330
560
100
AcDbEntity
  8
OBJECT
100
AcDbVertex
100
AcDb2dVertex
 10
2161.000006517406
 20
3295.000002519093
 30
-1379.051287506078
  0
VERTEX
  5
717
330
560
100
AcDbEntity
  8
OBJECT
100
AcDbVertex
100
AcDb2dVertex
 10
2161.000006517406
 20
3261.000002519093
 30
-1379.051287506078
 42
0.4142135623730952
  0
VERTEX
  5
718
330
560
100
AcDbEntity
  8
OBJECT
100
AcDbVertex
100
AcDb2dVertex
 10
2169.000006517408
 20
3253.000002519093
 30
-1379.051287506078
  0
VERTEX
  5
719
330
560
100
AcDbEntity
  8
OBJECT
100
AcDbVertex
100
AcDb2dVertex
 10
2171.000006517408
 20
3253.000002519093
 30
-1379.051287506078
  0
SEQEND
  5
71A
330
560
100
AcDbEntity
  8
OBJECT
  0
POLYLINE
  5
561
330
158
100
AcDbEntity
  8
OBJECT
100
AcDb2dPolyline
 66
     1
 10
0.0
 20
0.0
 30
-1379.051287506078
  0
VERTEX
  5
71B
330
561
100
AcDbEntity
  8
OBJECT
100
AcDbVertex
100
AcDb2dVertex
 10
1941.000006517408
 20
3303.000002519093
 30
-1379.051287506078
  0
VERTEX
  5
71C
330
561
100
AcDbEntity
  8
OBJECT
100
AcDbVertex
100
AcDb2dVertex
 10
1943.000006517408
 20
3303.000002519093
 30
-1379.051287506078
 42
-0.4142135623730952
  0
VERTEX
  5
71D
330
561
100
AcDbEntity
  8
OBJECT
100
AcDbVertex
100
AcDb2dVertex
 10
1951.000006517408
 20
3295.000002519093
 30
-1379.051287506078
  0
VERTEX
  5
71E
330
561
100
AcDbEntity
  8
OBJECT
100
AcDbVertex
100
AcDb2dVertex
 10
1951.000006517408
 20
3261.000002519093
 30
-1379.051287506078
 42
-0.4142135623730952
  0
VERTEX
  5
71F
330
561
100
AcDbEntity
  8
OBJECT
100
AcDbVertex
100
AcDb2dVertex
 10
1943.000006517408
 20
3253.000002519093
 30
-1379.051287506078
  0
VERTEX
  5
720
330
561
100
AcDbEntity
  8
OBJECT
100
AcDbVertex
100
AcDb2dVertex
 10
1941.000006517408
 20
3253.000002519093
 30
-1379.051287506078
  0
SEQEND
  5
721
330
561
100
AcDbEntity
  8
OBJECT
  0
LINE
  5
562
330
158
100
AcDbEntity
  8
OBJECT
100
AcDbLine
 10
1943.000006517408
 20
3303.000002519093
 30
-1379.051287506078
 11
1943.000006517408
 21
3253.000002519093
 31
-1379.051287506078
  0
POLYLINE
  5
563
330
158
100
AcDbEntity
  8
OBJECT
100
AcDb2dPolyline
 66
     1
 10
0.0
 20
0.0
 30
-1379.051287506078
 70
     1
  0
VERTEX
  5
722
330
563
100
AcDbEntity
  8
OBJECT
100
AcDbVertex
100
AcDb2dVertex
 10
1951.000006517408
 20
3295.000002519093
 30
-1379.051287506078
  0
VERTEX
  5
723
330
563
100
AcDbEntity
  8
OBJECT
100
AcDbVertex
100
AcDb2dVertex
 10
2161.000006517406
 20
3295.000002519093
 30
-1379.051287506078
  0
VERTEX
  5
724
330
563
100
AcDbEntity
  8
OBJECT
100
AcDbVertex
100
AcDb2dVertex
 10
2161.000006517406
 20
3261.000002519093
 30
-1379.051287506078
  0
VERTEX
  5
725
330
563
100
AcDbEntity
  8
OBJECT
100
AcDbVertex
100
AcDb2dVertex
 10
1951.000006517408
 20
3261.000002519093
 30
-1379.051287506078
  0
SEQEND
  5
726
330
563
100
AcDbEntity
  8
OBJECT
  0
POLYLINE
  5
564
330
158
100
AcDbEntity
  8
OBJECT
100
AcDb2dPolyline
 66
     1
 10
0.0
 20
0.0
 30
-1379.051287506078
  0
VERTEX
  5
727
330
564
100
AcDbEntity
  8
OBJECT
100
AcDbVertex
100
AcDb2dVertex
 10
1844.000006517408
 20
3635.000002519094
 30
-1379.051287506078
  0
VERTEX
  5
728
330
564
100
AcDbEntity
  8
OBJECT
100
AcDbVertex
100
AcDb2dVertex
 10
1842.000006517408
 20
3635.000002519094
 30
-1379.051287506078
 42
0.4142135623730952
  0
VERTEX
  5
729
330
564
100
AcDbEntity
  8
OBJECT
100
AcDbVertex
100
AcDb2dVertex
 10
1834.000006517408
 20
3627.000002519094
 30
-1379.051287506078
  0
VERTEX
  5
72A
330
564
100
AcDbEntity
  8
OBJECT
100
AcDbVertex
100
AcDb2dVertex
 10
1834.000006517408
 20
3593.000002519094
 30
-1379.051287506078
 42
0.4142135623730952
  0
VERTEX
  5
72B
330
564
100
AcDbEntity
  8
OBJECT
100
AcDbVertex
100
AcDb2dVertex
 10
1842.000006517408
 20
3585.000002519093
 30
-1379.051287506078
  0
VERTEX
  5
72C
330
564
100
AcDbEntity
  8
OBJECT
100
AcDbVertex
100
AcDb2dVertex
 10
1844.000006517408
 20
3585.000002519093
 30
-1379.051287506078
  0
SEQEND
  5
72D
330
564
100
AcDbEntity
  8
OBJECT
  0
LINE
  5
565
330
158
100
AcDbEntity
  8
OBJECT
100
AcDbLine
 10
1842.000006517408
 20
3635.000002519094
 30
-1379.051287506078
 11
1842.000006517408
 21
3585.000002519093
 31
-1379.051287506078
  0
LINE
  5
566
330
158
100
AcDbEntity
  8
OBJECT
100
AcDbLine
 10
1842.000006517408
 20
3303.000002519093
 30
-1379.051287506078
 11
1842.000006517408
 21
3253.000002519093
 31
-1379.051287506078
  0
POLYLINE
  5
567
330
158
100
AcDbEntity
  8
OBJECT
100
AcDb2dPolyline
 66
     1
 10
0.0
 20
0.0
 30
-1379.051287506078
  0
VERTEX
  5
72E
330
567
100
AcDbEntity
  8
OBJECT
100
AcDbVertex
100
AcDb2dVertex
 10
1844.000006517408
 20
3303.000002519093
 30
-1379.051287506078
  0
VERTEX
  5
72F
330
567
100
AcDbEntity
  8
OBJECT
100
AcDbVertex
100
AcDb2dVertex
 10
1842.000006517408
 20
3303.000002519093
 30
-1379.051287506078
 42
0.4142135623730952
  0
VERTEX
  5
730
330
567
100
AcDbEntity
  8
OBJECT
100
AcDbVertex
100
AcDb2dVertex
 10
1834.000006517408
 20
3295.000002519093
 30
-1379.051287506078
  0
VERTEX
  5
731
330
567
100
AcDbEntity
  8
OBJECT
100
AcDbVertex
100
AcDb2dVertex
 10
1834.000006517408
 20
3261.000002519093
 30
-1379.051287506078
 42
0.4142135623730952
  0
VERTEX
  5
732
330
567
100
AcDbEntity
  8
OBJECT
100
AcDbVertex
100
AcDb2dVertex
 10
1842.000006517408
 20
3253.000002519093
 30
-1379.051287506078
  0
VERTEX
  5
733
330
567
100
AcDbEntity
  8
OBJECT
100
AcDbVertex
100
AcDb2dVertex
 10
1844.000006517408
 20
3253.000002519093
 30
-1379.051287506078
  0
SEQEND
  5
734
330
567
100
AcDbEntity
  8
OBJECT
  0
LINE
  5
568
330
158
100
AcDbEntity
  8
OBJECT
100
AcDbLine
 10
2169.000006517408
 20
2969.000002519093
 30
-1379.051287506078
 11
2169.000006517408
 21
2919.000002519091
 31
-1379.051287506078
  0
POLYLINE
  5
569
330
158
100
AcDbEntity
  8
OBJECT
100
AcDb2dPolyline
 66
     1
 10
0.0
 20
0.0
 30
-1379.051287506078
  0
VERTEX
  5
735
330
569
100
AcDbEntity
  8
OBJECT
100
AcDbVertex
100
AcDb2dVertex
 10
2171.000006517408
 20
2969.000002519093
 30
-1379.051287506078
  0
VERTEX
  5
736
330
569
100
AcDbEntity
  8
OBJECT
100
AcDbVertex
100
AcDb2dVertex
 10
2169.000006517408
 20
2969.000002519093
 30
-1379.051287506078
 42
0.4142135623730952
  0
VERTEX
  5
737
330
569
100
AcDbEntity
  8
OBJECT
100
AcDbVertex
100
AcDb2dVertex
 10
2161.000006517406
 20
2961.000002519093
 30
-1379.051287506078
  0
VERTEX
  5
738
330
569
100
AcDbEntity
  8
OBJECT
100
AcDbVertex
100
AcDb2dVertex
 10
2161.000006517406
 20
2927.000002519093
 30
-1379.051287506078
 42
0.4142135623730952
  0
VERTEX
  5
739
330
569
100
AcDbEntity
  8
OBJECT
100
AcDbVertex
100
AcDb2dVertex
 10
2169.000006517408
 20
2919.000002519091
 30
-1379.051287506078
  0
VERTEX
  5
73A
330
569
100
AcDbEntity
  8
OBJECT
100
AcDbVertex
100
AcDb2dVertex
 10
2171.000006517408
 20
2919.000002519091
 30
-1379.051287506078
  0
SEQEND
  5
73B
330
569
100
AcDbEntity
  8
OBJECT
  0
POLYLINE
  5
56A
330
158
100
AcDbEntity
  8
OBJECT
100
AcDb2dPolyline
 66
     1
 10
0.0
 20
0.0
 30
-1379.051287506078
  0
VERTEX
  5
73C
330
56A
100
AcDbEntity
  8
OBJECT
100
AcDbVertex
100
AcDb2dVertex
 10
1941.000006517408
 20
2969.000002519093
 30
-1379.051287506078
  0
VERTEX
  5
73D
330
56A
100
AcDbEntity
  8
OBJECT
100
AcDbVertex
100
AcDb2dVertex
 10
1943.000006517408
 20
2969.000002519093
 30
-1379.051287506078
 42
-0.4142135623730952
  0
VERTEX
  5
73E
330
56A
100
AcDbEntity
  8
OBJECT
100
AcDbVertex
100
AcDb2dVertex
 10
1951.000006517408
 20
2961.000002519093
 30
-1379.051287506078
  0
VERTEX
  5
73F
330
56A
100
AcDbEntity
  8
OBJECT
100
AcDbVertex
100
AcDb2dVertex
 10
1951.000006517408
 20
2927.000002519093
 30
-1379.051287506078
 42
-0.4142135623730952
  0
VERTEX
  5
740
330
56A
100
AcDbEntity
  8
OBJECT
100
AcDbVertex
100
AcDb2dVertex
 10
1943.000006517408
 20
2919.000002519091
 30
-1379.051287506078
  0
VERTEX
  5
741
330
56A
100
AcDbEntity
  8
OBJECT
100
AcDbVertex
100
AcDb2dVertex
 10
1941.000006517408
 20
2919.000002519091
 30
-1379.051287506078
  0
SEQEND
  5
742
330
56A
100
AcDbEntity
  8
OBJECT
  0
LINE
  5
56B
330
158
100
AcDbEntity
  8
OBJECT
100
AcDbLine
 10
1943.000006517408
 20
2969.000002519093
 30
-1379.051287506078
 11
1943.000006517408
 21
2919.000002519091
 31
-1379.051287506078
  0
POLYLINE
  5
56C
330
158
100
AcDbEntity
  8
OBJECT
100
AcDb2dPolyline
 66
     1
 10
0.0
 20
0.0
 30
-1379.051287506078
 70
     1
  0
VERTEX
  5
743
330
56C
100
AcDbEntity
  8
OBJECT
100
AcDbVertex
100
AcDb2dVertex
 10
1951.000006517408
 20
2961.000002519093
 30
-1379.051287506078
  0
VERTEX
  5
744
330
56C
100
AcDbEntity
  8
OBJECT
100
AcDbVertex
100
AcDb2dVertex
 10
2161.000006517406
 20
2961.000002519093
 30
-1379.051287506078
  0
VERTEX
  5
745
330
56C
100
AcDbEntity
  8
OBJECT
100
AcDbVertex
100
AcDb2dVertex
 10
2161.000006517406
 20
2927.000002519093
 30
-1379.051287506078
  0
VERTEX
  5
746
330
56C
100
AcDbEntity
  8
OBJECT
100
AcDbVertex
100
AcDb2dVertex
 10
1951.000006517408
 20
2927.000002519093
 30
-1379.051287506078
  0
SEQEND
  5
747
330
56C
100
AcDbEntity
  8
OBJECT
  0
LINE
  5
56D
330
158
100
AcDbEntity
  8
OBJECT
100
AcDbLine
 10
2169.000006517408
 20
2635.000002519093
 30
-1379.051287506078
 11
2169.000006517408
 21
2585.000002519093
 31
-1379.051287506078
  0
POLYLINE
  5
56E
330
158
100
AcDbEntity
  8
OBJECT
100
AcDb2dPolyline
 66
     1
 10
0.0
 20
0.0
 30
-1379.051287506078
  0
VERTEX
  5
748
330
56E
100
AcDbEntity
  8
OBJECT
100
AcDbVertex
100
AcDb2dVertex
 10
2171.000006517408
 20
2635.000002519093
 30
-1379.051287506078
  0
VERTEX
  5
749
330
56E
100
AcDbEntity
  8
OBJECT
100
AcDbVertex
100
AcDb2dVertex
 10
2169.000006517408
 20
2635.000002519093
 30
-1379.051287506078
 42
0.4142135623730952
  0
VERTEX
  5
74A
330
56E
100
AcDbEntity
  8
OBJECT
100
AcDbVertex
100
AcDb2dVertex
 10
2161.000006517406
 20
2627.000002519093
 30
-1379.051287506078
  0
VERTEX
  5
74B
330
56E
100
AcDbEntity
  8
OBJECT
100
AcDbVertex
100
AcDb2dVertex
 10
2161.000006517406
 20
2593.000002519093
 30
-1379.051287506078
 42
0.4142135623730952
  0
VERTEX
  5
74C
330
56E
100
AcDbEntity
  8
OBJECT
100
AcDbVertex
100
AcDb2dVertex
 10
2169.000006517408
 20
2585.000002519093
 30
-1379.051287506078
  0
VERTEX
  5
74D
330
56E
100
AcDbEntity
  8
OBJECT
100
AcDbVertex
100
AcDb2dVertex
 10
2171.000006517408
 20
2585.000002519093
 30
-1379.051287506078
  0
SEQEND
  5
74E
330
56E
100
AcDbEntity
  8
OBJECT
  0
POLYLINE
  5
56F
330
158
100
AcDbEntity
  8
OBJECT
100
AcDb2dPolyline
 66
     1
 10
0.0
 20
0.0
 30
-1379.051287506078
  0
VERTEX
  5
74F
330
56F
100
AcDbEntity
  8
OBJECT
100
AcDbVertex
100
AcDb2dVertex
 10
1941.000006517408
 20
2635.000002519093
 30
-1379.051287506078
  0
VERTEX
  5
750
330
56F
100
AcDbEntity
  8
OBJECT
100
AcDbVertex
100
AcDb2dVertex
 10
1943.000006517408
 20
2635.000002519093
 30
-1379.051287506078
 42
-0.4142135623730952
  0
VERTEX
  5
751
330
56F
100
AcDbEntity
  8
OBJECT
100
AcDbVertex
100
AcDb2dVertex
 10
1951.000006517408
 20
2627.000002519093
 30
-1379.051287506078
  0
VERTEX
  5
752
330
56F
100
AcDbEntity
  8
OBJECT
100
AcDbVertex
100
AcDb2dVertex
 10
1951.000006517408
 20
2593.000002519093
 30
-1379.051287506078
 42
-0.4142135623730952
  0
VERTEX
  5
753
330
56F
100
AcDbEntity
  8
OBJECT
100
AcDbVertex
100
AcDb2dVertex
 10
1943.000006517408
 20
2585.000002519093
 30
-1379.051287506078
  0
VERTEX
  5
754
330
56F
100
AcDbEntity
  8
OBJECT
100
AcDbVertex
100
AcDb2dVertex
 10
1941.000006517408
 20
2585.000002519093
 30
-1379.051287506078
  0
SEQEND
  5
755
330
56F
100
AcDbEntity
  8
OBJECT
  0
LINE
  5
570
330
158
100
AcDbEntity
  8
OBJECT
100
AcDbLine
 10
1943.000006517408
 20
2635.000002519093
 30
-1379.051287506078
 11
1943.000006517408
 21
2585.000002519093
 31
-1379.051287506078
  0
POLYLINE
  5
571
330
158
100
AcDbEntity
  8
OBJECT
100
AcDb2dPolyline
 66
     1
 10
0.0
 20
0.0
 30
-1379.051287506078
 70
     1
  0
VERTEX
  5
756
330
571
100
AcDbEntity
  8
OBJECT
100
AcDbVertex
100
AcDb2dVertex
 10
1951.000006517408
 20
2627.000002519093
 30
-1379.051287506078
  0
VERTEX
  5
757
330
571
100
AcDbEntity
  8
OBJECT
100
AcDbVertex
100
AcDb2dVertex
 10
2161.000006517406
 20
2627.000002519093
 30
-1379.051287506078
  0
VERTEX
  5
758
330
571
100
AcDbEntity
  8
OBJECT
100
AcDbVertex
100
AcDb2dVertex
 10
2161.000006517406
 20
2593.000002519093
 30
-1379.051287506078
  0
VERTEX
  5
759
330
571
100
AcDbEntity
  8
OBJECT
100
AcDbVertex
100
AcDb2dVertex
 10
1951.000006517408
 20
2593.000002519093
 30
-1379.051287506078
  0
SEQEND
  5
75A
330
571
100
AcDbEntity
  8
OBJECT
  0
LINE
  5
572
330
158
100
AcDbEntity
  8
OBJECT
100
AcDbLine
 10
1842.000006517408
 20
2969.000002519093
 30
-1379.051287506078
 11
1842.000006517408
 21
2919.000002519091
 31
-1379.051287506078
  0
POLYLINE
  5
573
330
158
100
AcDbEntity
  8
OBJECT
100
AcDb2dPolyline
 66
     1
 10
0.0
 20
0.0
 30
-1379.051287506078
  0
VERTEX
  5
75B
330
573
100
AcDbEntity
  8
OBJECT
100
AcDbVertex
100
AcDb2dVertex
 10
1844.000006517408
 20
2969.000002519093
 30
-1379.051287506078
  0
VERTEX
  5
75C
330
573
100
AcDbEntity
  8
OBJECT
100
AcDbVertex
100
AcDb2dVertex
 10
1842.000006517408
 20
2969.000002519093
 30
-1379.051287506078
 42
0.4142135623730952
  0
VERTEX
  5
75D
330
573
100
AcDbEntity
  8
OBJECT
100
AcDbVertex
100
AcDb2dVertex
 10
1834.000006517408
 20
2961.000002519093
 30
-1379.051287506078
  0
VERTEX
  5
75E
330
573
100
AcDbEntity
  8
OBJECT
100
AcDbVertex
100
AcDb2dVertex
 10
1834.000006517408
 20
2927.000002519093
 30
-1379.051287506078
 42
0.4142135623730952
  0
VERTEX
  5
75F
330
573
100
AcDbEntity
  8
OBJECT
100
AcDbVertex
100
AcDb2dVertex
 10
1842.000006517408
 20
2919.000002519091
 30
-1379.051287506078
  0
VERTEX
  5
760
330
573
100
AcDbEntity
  8
OBJECT
100
AcDbVertex
100
AcDb2dVertex
 10
1844.000006517408
 20
2919.000002519091
 30
-1379.051287506078
  0
SEQEND
  5
761
330
573
100
AcDbEntity
  8
OBJECT
  0
LINE
  5
574
330
158
100
AcDbEntity
  8
OBJECT
100
AcDbLine
 10
1842.000006517408
 20
2635.000002519093
 30
-1379.051287506078
 11
1842.000006517408
 21
2585.000002519093
 31
-1379.051287506078
  0
POLYLINE
  5
575
330
158
100
AcDbEntity
  8
OBJECT
100
AcDb2dPolyline
 66
     1
 10
0.0
 20
0.0
 30
-1379.051287506078
  0
VERTEX
  5
762
330
575
100
AcDbEntity
  8
OBJECT
100
AcDbVertex
100
AcDb2dVertex
 10
1844.000006517408
 20
2635.000002519093
 30
-1379.051287506078
  0
VERTEX
  5
763
330
575
100
AcDbEntity
  8
OBJECT
100
AcDbVertex
100
AcDb2dVertex
 10
1842.000006517408
 20
2635.000002519093
 30
-1379.051287506078
 42
0.4142135623730952
  0
VERTEX
  5
764
330
575
100
AcDbEntity
  8
OBJECT
100
AcDbVertex
100
AcDb2dVertex
 10
1834.000006517408
 20
2627.000002519093
 30
-1379.051287506078
  0
VERTEX
  5
765
330
575
100
AcDbEntity
  8
OBJECT
100
AcDbVertex
100
AcDb2dVertex
 10
1834.000006517408
 20
2593.000002519093
 30
-1379.051287506078
 42
0.4142135623730952
  0
VERTEX
  5
766
330
575
100
AcDbEntity
  8
OBJECT
100
AcDbVertex
100
AcDb2dVertex
 10
1842.000006517408
 20
2585.000002519093
 30
-1379.051287506078
  0
VERTEX
  5
767
330
575
100
AcDbEntity
  8
OBJECT
100
AcDbVertex
100
AcDb2dVertex
 10
1844.000006517408
 20
2585.000002519093
 30
-1379.051287506078
  0
SEQEND
  5
768
330
575
100
AcDbEntity
  8
OBJECT
  0
REGION
  5
576
330
158
100
AcDbEntity
  8
OBJECT
100
AcDbModelerGeometry
 70
     1
  1
noi gi n o          
  1
=0;& {n {m {rn {rn |
  1
9@=0;&r3(;r>++-6= {rn {l {rn {o |
  1
3*2/ {k {rn {j {o |
  1
-:9@)+r3(;r>++-6= {rn {rn {n {o {i {h |
  1
-:9@)+r3(;r>++-6= {rn {rn {rn {m {i {h |
  1
,7:33 {g {rn {rn {f {m |
  1
-:961:2:1+ {rn o o o o nqghlkokjomgigijml o o k o o o o o o o o o |
  1
):-+:'@+:2/3>+: {rn l o n g |
  1
-:9@)+r3(;r>++-6= {rn {rn {rn {j {i {h |
  1
9><: {no {rn {nn {j {rn {nm 90-(>-; ;0*=3: 0*+ |
  1
99><:r3(;r>++-6= {rn {nl {rn {f |
  1
300/ {rn {nk {nj {f |
  1
/3>1:r,*-9><: {rn mmfjqjooooijnhkoff ljjjqooooomjnfofjh rnlhfqojnmghjoiohfm o o n n o o o V V V V |
  1
-:9@)+r3(;r>++-6= {rn {rn {no {f {i {rn |
  1
300/ {rn {ni {nh {f |
  1
<0:;8: {ng {nf {mo {rn {mn n {nn {rn |
  1
300/ {rn {rn {mm {f |
  1
<0:;8: {ml {nh {nh {rn {mk o {nk {rn |
  1
<0/>-r3(;r>++-6= {rn {rn {rn {nj |
  1
<0:;8: {mj {mi {nj {rn {mh n {nn {rn |
  1
<0:;8: {mg {nj {mf {rn {lo n {nn {rn |
  1
:;8: {ln {lm {ll {nj {lk o |
  1
<0:;8: {lj {mm {mm {rn {li o {ni {rn |
  1
<0/>-r3(;r>++-6= {rn {rn {rn {nh |
  1
:;8: {lh {lg {lg {nh {lf o |
  1
<0/>-r3(;r>++-6= {rn {rn {rn {nf |
  1
<0:;8: {ko {kn {nf {rn {km n {nn {rn |
  1
:;8: {kl {kk {lm {nf {kj o |
  1
<0/>-r3(;r>++-6= {rn {rn {rn {mo |
  1
<0:;8: {ki {mo {kh {rn {kg n {nn {rn |
  1
:;8: {kf {ll {jo {mo {jn o |
  1
:/>-r3(;r>++-6= {rn {rn {rn {mn |
  1
):-+:' {rn {mn {jm |
  1
):-+:' {rn {mn {jl |
  1
,+->687+r<*-): {rn mnflqjooooijnhkogn ljjjqooooomjnfofjh rnlhfqojnmghjoiohfm rn o o V V |
  1
<0/>-r3(;r>++-6= {rn {rn {rn {mm |
  1
:;8: {jk {jj {jj {mm {ji o |
  1
:/>-r3(;r>++-6= {rn {rn {rn {mk |
  1
):-+:' {rn {mk {jh |
  1
:336/,:r<*-): {rn mmnkqjooooijnhkohm likoqooooomjnfofkg rnlhfqojnmghjoiohfm o o rn nk o o n V V |
  1
<0/>-r3(;r>++-6= {rn {rn {rn {mi |
  1
<0:;8: {jg {jf {mi {rn {io n {nn {rn |
  1
:;8: {in {im {kk {mi {il o |
  1
:/>-r3(;r>++-6= {rn {rn {rn {mh |
  1
):-+:' {rn {mh {ik |
  1
:336/,:r<*-): {rn mmfjqjooooijnhkoff ljjfqooooomjnfofjh rnlhfqojnmghjoiohfm o o rn mqgmgkmhnmkhkinion rmqgmgkmhnmkhkinion o n V V |
  1
<0/>-r3(;r>++-6= {rn {rn {rn {mf |
  1
<0:;8: {ij {mf {jf {rn {ii n {nn {rn |
  1
:;8: {ih {jo {ig {mf {if o |
  1
:/>-r3(;r>++-6= {rn {rn {rn {lo |
  1
):-+:' {rn {kg {ho |
  1
:336/,:r<*-): {rn mnflqjooooijnhkogn ljjfqooooomjnfofjh rnlhfqojnmghjoiohfm o o rn rmqgmgkmhnmkhkingfg rmqgmgkmhnmkhkingfg o n V V |
  1
/061+ {rn mmfjqjooooijnhkoff ljjjqooooomjnfofjh rnlhfqojnmghjoiohfm |
  1
/061+ {rn mnflqjooooijnhkogn ljjjqooooomjnfofjh rnlhfqojnmghjoiohfm |
  1
:/>-r3(;r>++-6= {rn {rn {rn {li |
  1
):-+:' {rn {li {hn |
  1
:336/,:r<*-): {rn mmhkqjooooijnhknog ljgoqooooomjnfofjh rnlhfqojnmghjoiohfm o o rn rnk o o n V V |
  1
/061+ {rn mmmgqjooooijnhkohm likoqooooomjnfofkg rnlhfqojnmghjoiohfm |
  1
<0/>-r3(;r>++-6= {rn {rn {rn {kn |
  1
<0:;8: {hm {kh {kn {rn {hl n {nn {rn |
  1
:;8: {hk {hj {im {kn {hi o |
  1
:/>-r3(;r>++-6= {rn {rn {rn {km |
  1
):-+:' {rn {km {hh |
  1
,+->687+r<*-): {rn mmffqjooooijnhkoff ljjfqooooomjnfofjh rnlhfqojnmghjoiohfm mqihkfgkknifhfmnmh:ronk rn o V V |
  1
/061+ {rn mmffqjooooijnhkoff ljjfqooooomjnfofjh rnlhfqojnmghjoiohfm |
  1
<0/>-r3(;r>++-6= {rn {rn {rn {kh |
  1
:;8: {hg {ig {hf {kh {go o |
  1
:/>-r3(;r>++-6= {rn {rn {rn {kg |
  1
):-+:' {rn {ii {gn |
  1
,+->687+r<*-): {rn mngfqjooooijnhkogn liinqooooomjnfofjh rnlhfqojnmghjoiohfm o n o V V |
  1
/061+ {rn mngfqjooooijnhkogn ljjfqooooomjnfofjh rnlhfqojnmghjoiohfm |
  1
/061+ {rn mmioqjooooijnhknog ljgoqooooomjnfofjh rnlhfqojnmghjoiohfm |
  1
<0/>-r3(;r>++-6= {rn {rn {rn {jf |
  1
:;8: {gm {hf {hj {jf {gl o |
  1
:/>-r3(;r>++-6= {rn {rn {rn {io |
  1
):-+:' {rn {io {gk |
  1
:336/,:r<*-): {rn mmfjqjooooijnhkohm liinqooooomjnfofkg rnlhfqojnmghjoiohfm o o rn mqgmgkmhnmkhkingfg mqgmgkmhnmkhkingfg o n V V |
  1
/061+ {rn mmffqjooooijnhkohm liinqooooomjnfofkg rnlhfqojnmghjoiohfm |
  1
:/>-r3(;r>++-6= {rn {rn {rn {ii |
  1
):-+:' {rn {hl {gj |
  1
:336/,:r<*-): {rn mnflqjooooijnhkogn liinqooooomjnfofjh rnlhfqojnmghjoiohfm o o rn rmqgmgkmhnmkhkingkn mqgmgkmhnmkhkingkn o n V V |
  1
/061+ {rn mngfqjooooijnhkogn liinqooooomjnfofjh rnlhfqojnmghjoiohfm |
  1
:/>-r3(;r>++-6= {rn {rn {rn {hl |
  1
,+->687+r<*-): {rn mmfjqjooooijnhkohm liijqooooomjnfofkg rnlhfqojnmghjoiohfm n rkqkjglohlinilmokoj:ronj o V V |
  1
/061+ {rn mmfjqjooooijnhkohm liijqooooomjnfofkg rnlhfqojnmghjoiohfm |
  1
/061+ {rn mnflqjooooijnhkogn liijqooooomjnfofjh rnlhfqojnmghjoiohfm |
  0
REGION
  5
577
330
158
100
AcDbEntity
  8
OBJECT
100
AcDbModelerGeometry
 70
     1
  1
noi gi n o          
  1
=0;& {n {m {rn {rn |
  1
9@=0;&r3(;r>++-6= {rn {l {rn {o |
  1
3*2/ {k {rn {j {o |
  1
-:9@)+r3(;r>++-6= {rn {rn {n {o {i {h |
  1
-:9@)+r3(;r>++-6= {rn {rn {rn {m {i {h |
  1
,7:33 {g {rn {rn {f {m |
  1
-:961:2:1+ {rn o o o o nqghlkokjomgigijml o o k o o o o o o o o o |
  1
):-+:'@+:2/3>+: {rn l o n g |
  1
-:9@)+r3(;r>++-6= {rn {rn {rn {j {i {h |
  1
9><: {no {rn {nn {j {rn {nm 90-(>-; ;0*=3: 0*+ |
  1
99><:r3(;r>++-6= {rn {nl {rn {f |
  1
300/ {rn {nk {nj {f |
  1
/3>1:r,*-9><: {rn mmfjqjooooijnhkoff mjjjqooooomjnfofjh rnlhfqojnmghjoiohfm o o n n o o o V V V V |
  1
-:9@)+r3(;r>++-6= {rn {rn {no {f {i {rn |
  1
300/ {rn {ni {nh {f |
  1
<0:;8: {ng {nf {mo {rn {mn n {nn {rn |
  1
300/ {rn {rn {mm {f |
  1
<0:;8: {ml {nh {nh {rn {mk o {nk {rn |
  1
<0/>-r3(;r>++-6= {rn {rn {rn {nj |
  1
<0:;8: {mj {mi {nj {rn {mh n {nn {rn |
  1
<0:;8: {mg {nj {mf {rn {lo n {nn {rn |
  1
:;8: {ln {lm {ll {nj {lk o |
  1
<0:;8: {lj {mm {mm {rn {li o {ni {rn |
  1
<0/>-r3(;r>++-6= {rn {rn {rn {nh |
  1
:;8: {lh {lg {lg {nh {lf o |
  1
<0/>-r3(;r>++-6= {rn {rn {rn {nf |
  1
<0:;8: {ko {kn {nf {rn {km n {nn {rn |
  1
:;8: {kl {kk {lm {nf {kj o |
  1
<0/>-r3(;r>++-6= {rn {rn {rn {mo |
  1
<0:;8: {ki {mo {kh {rn {kg n {nn {rn |
  1
:;8: {kf {ll {jo {mo {jn o |
  1
:/>-r3(;r>++-6= {rn {rn {rn {mn |
  1
):-+:' {rn {mn {jm |
  1
):-+:' {rn {mn {jl |
  1
,+->687+r<*-): {rn mnflqjooooijnhkogn mjjjqooooomjnfofjh rnlhfqojnmghjoiohfm rn o o V V |
  1
<0/>-r3(;r>++-6= {rn {rn {rn {mm |
  1
:;8: {jk {jj {jj {mm {ji o |
  1
:/>-r3(;r>++-6= {rn {rn {rn {mk |
  1
):-+:' {rn {mk {jh |
  1
:336/,:r<*-): {rn mmnkqjooooijnhkohm mikoqooooomjnfofkg rnlhfqojnmghjoiohfm o o rn nk o o n V V |
  1
<0/>-r3(;r>++-6= {rn {rn {rn {mi |
  1
<0:;8: {jg {jf {mi {rn {io n {nn {rn |
  1
:;8: {in {im {kk {mi {il o |
  1
:/>-r3(;r>++-6= {rn {rn {rn {mh |
  1
):-+:' {rn {mh {ik |
  1
:336/,:r<*-): {rn mmfjqjooooijnhkoff mjjfqooooomjnfofjh rnlhfqojnmghjoiohfm o o rn mqgmgkmhnmkhkinion rmqgmgkmhnmkhkinion o n V V |
  1
<0/>-r3(;r>++-6= {rn {rn {rn {mf |
  1
<0:;8: {ij {mf {jf {rn {ii n {nn {rn |
  1
:;8: {ih {jo {ig {mf {if o |
  1
:/>-r3(;r>++-6= {rn {rn {rn {lo |
  1
):-+:' {rn {kg {ho |
  1
:336/,:r<*-): {rn mnflqjooooijnhkogn mjjfqooooomjnfofjh rnlhfqojnmghjoiohfm o o rn rmqgmgkmhnmkhkingfg rmqgmgkmhnmkhkingfg o n V V |
  1
/061+ {rn mmfjqjooooijnhkoff mjjjqooooomjnfofjh rnlhfqojnmghjoiohfm |
  1
/061+ {rn mnflqjooooijnhkogn mjjjqooooomjnfofjh rnlhfqojnmghjoiohfm |
  1
:/>-r3(;r>++-6= {rn {rn {rn {li |
  1
):-+:' {rn {li {hn |
  1
:336/,:r<*-): {rn mmhkqjooooijnhknog mjgoqooooomjnfofjh rnlhfqojnmghjoiohfm o o rn rnk o o n V V |
  1
/061+ {rn mmmgqjooooijnhkohm mikoqooooomjnfofkg rnlhfqojnmghjoiohfm |
  1
<0/>-r3(;r>++-6= {rn {rn {rn {kn |
  1
<0:;8: {hm {kh {kn {rn {hl n {nn {rn |
  1
:;8: {hk {hj {im {kn {hi o |
  1
:/>-r3(;r>++-6= {rn {rn {rn {km |
  1
):-+:' {rn {km {hh |
  1
,+->687+r<*-): {rn mmffqjooooijnhkoff mjjfqooooomjnfofjh rnlhfqojnmghjoiohfm mqihkfgkknifhfmnmh:ronk rn o V V |
  1
/061+ {rn mmffqjooooijnhkoff mjjfqooooomjnfofjh rnlhfqojnmghjoiohfm |
  1
<0/>-r3(;r>++-6= {rn {rn {rn {kh |
  1
:;8: {hg {ig {hf {kh {go o |
  1
:/>-r3(;r>++-6= {rn {rn {rn {kg |
  1
):-+:' {rn {ii {gn |
  1
,+->687+r<*-): {rn mngfqjooooijnhkogn miinqooooomjnfofjh rnlhfqojnmghjoiohfm o n o V V |
  1
/061+ {rn mngfqjooooijnhkogn mjjfqooooomjnfofjh rnlhfqojnmghjoiohfm |
  1
/061+ {rn mmioqjooooijnhknog mjgoqooooomjnfofjh rnlhfqojnmghjoiohfm |
  1
<0/>-r3(;r>++-6= {rn {rn {rn {jf |
  1
:;8: {gm {hf {hj {jf {gl o |
  1
:/>-r3(;r>++-6= {rn {rn {rn {io |
  1
):-+:' {rn {io {gk |
  1
:336/,:r<*-): {rn mmfjqjooooijnhkohm miinqooooomjnfofkg rnlhfqojnmghjoiohfm o o rn mqgmgkmhnmkhkingfg mqgmgkmhnmkhkingfg o n V V |
  1
/061+ {rn mmffqjooooijnhkohm miinqooooomjnfofkg rnlhfqojnmghjoiohfm |
  1
:/>-r3(;r>++-6= {rn {rn {rn {ii |
  1
):-+:' {rn {hl {gj |
  1
:336/,:r<*-): {rn mnflqjooooijnhkogn miinqooooomjnfofjh rnlhfqojnmghjoiohfm o o rn rmqgmgkmhnmkhkingkn mqgmgkmhnmkhkingkn o n V V |
  1
/061+ {rn mngfqjooooijnhkogn miinqooooomjnfofjh rnlhfqojnmghjoiohfm |
  1
:/>-r3(;r>++-6= {rn {rn {rn {hl |
  1
,+->687+r<*-): {rn mmfjqjooooijnhkohm miijqooooomjnfofkg rnlhfqojnmghjoiohfm n rkqkjglohlinilmokoj:ronj o V V |
  1
/061+ {rn mmfjqjooooijnhkohm miijqooooomjnfofkg rnlhfqojnmghjoiohfm |
  1
/061+ {rn mnflqjooooijnhkogn miijqooooomjnfofjh rnlhfqojnmghjoiohfm |
  0
POLYLINE
  5
578
330
158
100
AcDbEntity
  8
OBJECT
100
AcDb2dPolyline
 66
     1
 10
0.0
 20
0.0
 30
-1379.051287506078
  0
VERTEX
  5
769
330
578
100
AcDbEntity
  8
OBJECT
100
AcDbVertex
100
AcDb2dVertex
 10
2267.910767202562
 20
1665.000002519095
 30
-1379.051287506078
 42
0.2482675702532814
  0
VERTEX
  5
76A
330
578
100
AcDbEntity
  8
OBJECT
100
AcDbVertex
100
AcDb2dVertex
 10
2261.296388924901
 20
1668.500002519095
 30
-1379.051287506078
  0
VERTEX
  5
76B
330
578
100
AcDbEntity
  8
OBJECT
100
AcDbVertex
100
AcDb2dVertex
 10
2227.296388924901
 20
1668.500002519095
 30
-1379.051287506078
 42
0.2482675702532814
  0
VERTEX
  5
76C
330
578
100
AcDbEntity
  8
OBJECT
100
AcDbVertex
100
AcDb2dVertex
 10
2220.682010647239
 20
1665.000002519095
 30
-1379.051287506078
  0
SEQEND
  5
76D
330
578
100
AcDbEntity
  8
OBJECT
  0
LINE
  5
579
330
158
100
AcDbEntity
  8
OBJECT
100
AcDbLine
 10
2169.000006517408
 20
2301.000002519093
 30
-1379.051287506078
 11
2169.000006517408
 21
2251.000002519093
 31
-1379.051287506078
  0
POLYLINE
  5
57A
330
158
100
AcDbEntity
  8
OBJECT
100
AcDb2dPolyline
 66
     1
 10
0.0
 20
0.0
 30
-1379.051287506078
  0
VERTEX
  5
76E
330
57A
100
AcDbEntity
  8
OBJECT
100
AcDbVertex
100
AcDb2dVertex
 10
2171.000006517408
 20
2301.000002519093
 30
-1379.051287506078
  0
VERTEX
  5
76F
330
57A
100
AcDbEntity
  8
OBJECT
100
AcDbVertex
100
AcDb2dVertex
 10
2169.000006517408
 20
2301.000002519093
 30
-1379.051287506078
 42
0.4142135623730952
  0
VERTEX
  5
770
330
57A
100
AcDbEntity
  8
OBJECT
100
AcDbVertex
100
AcDb2dVertex
 10
2161.000006517406
 20
2293.000002519093
 30
-1379.051287506078
  0
VERTEX
  5
771
330
57A
100
AcDbEntity
  8
OBJECT
100
AcDbVertex
100
AcDb2dVertex
 10
2161.000006517406
 20
2259.000002519092
 30
-1379.051287506078
 42
0.4142135623730952
  0
VERTEX
  5
772
330
57A
100
AcDbEntity
  8
OBJECT
100
AcDbVertex
100
AcDb2dVertex
 10
2169.000006517408
 20
2251.000002519093
 30
-1379.051287506078
  0
VERTEX
  5
773
330
57A
100
AcDbEntity
  8
OBJECT
100
AcDbVertex
100
AcDb2dVertex
 10
2171.000006517408
 20
2251.000002519093
 30
-1379.051287506078
  0
SEQEND
  5
774
330
57A
100
AcDbEntity
  8
OBJECT
  0
POLYLINE
  5
57B
330
158
100
AcDbEntity
  8
OBJECT
100
AcDb2dPolyline
 66
     1
 10
0.0
 20
0.0
 30
-1379.051287506078
  0
VERTEX
  5
775
330
57B
100
AcDbEntity
  8
OBJECT
100
AcDbVertex
100
AcDb2dVertex
 10
1941.000006517408
 20
2301.000002519093
 30
-1379.051287506078
  0
VERTEX
  5
776
330
57B
100
AcDbEntity
  8
OBJECT
100
AcDbVertex
100
AcDb2dVertex
 10
1943.000006517408
 20
2301.000002519093
 30
-1379.051287506078
 42
-0.4142135623730952
  0
VERTEX
  5
777
330
57B
100
AcDbEntity
  8
OBJECT
100
AcDbVertex
100
AcDb2dVertex
 10
1951.000006517408
 20
2293.000002519093
 30
-1379.051287506078
  0
VERTEX
  5
778
330
57B
100
AcDbEntity
  8
OBJECT
100
AcDbVertex
100
AcDb2dVertex
 10
1951.000006517408
 20
2259.000002519092
 30
-1379.051287506078
 42
-0.4142135623730952
  0
VERTEX
  5
779
330
57B
100
AcDbEntity
  8
OBJECT
100
AcDbVertex
100
AcDb2dVertex
 10
1943.000006517408
 20
2251.000002519093
 30
-1379.051287506078
  0
VERTEX
  5
77A
330
57B
100
AcDbEntity
  8
OBJECT
100
AcDbVertex
100
AcDb2dVertex
 10
1941.000006517408
 20
2251.000002519093
 30
-1379.051287506078
  0
SEQEND
  5
77B
330
57B
100
AcDbEntity
  8
OBJECT
  0
LINE
  5
57C
330
158
100
AcDbEntity
  8
OBJECT
100
AcDbLine
 10
1943.000006517408
 20
2301.000002519093
 30
-1379.051287506078
 11
1943.000006517408
 21
2251.000002519093
 31
-1379.051287506078
  0
POLYLINE
  5
57D
330
158
100
AcDbEntity
  8
OBJECT
100
AcDb2dPolyline
 66
     1
 10
0.0
 20
0.0
 30
-1379.051287506078
 70
     1
  0
VERTEX
  5
77C
330
57D
100
AcDbEntity
  8
OBJECT
100
AcDbVertex
100
AcDb2dVertex
 10
1951.000006517408
 20
2293.000002519093
 30
-1379.051287506078
  0
VERTEX
  5
77D
330
57D
100
AcDbEntity
  8
OBJECT
100
AcDbVertex
100
AcDb2dVertex
 10
2161.000006517406
 20
2293.000002519093
 30
-1379.051287506078
  0
VERTEX
  5
77E
330
57D
100
AcDbEntity
  8
OBJECT
100
AcDbVertex
100
AcDb2dVertex
 10
2161.000006517406
 20
2259.000002519092
 30
-1379.051287506078
  0
VERTEX
  5
77F
330
57D
100
AcDbEntity
  8
OBJECT
100
AcDbVertex
100
AcDb2dVertex
 10
1951.000006517408
 20
2259.000002519092
 30
-1379.051287506078
  0
SEQEND
  5
780
330
57D
100
AcDbEntity
  8
OBJECT
  0
LINE
  5
57E
330
158
100
AcDbEntity
  8
OBJECT
100
AcDbLine
 10
2169.000006517408
 20
1967.000002519093
 30
-1379.051287506078
 11
2169.000006517408
 21
1917.000002519093
 31
-1379.051287506078
  0
POLYLINE
  5
57F
330
158
100
AcDbEntity
  8
OBJECT
100
AcDb2dPolyline
 66
     1
 10
0.0
 20
0.0
 30
-1379.051287506078
  0
VERTEX
  5
781
330
57F
100
AcDbEntity
  8
OBJECT
100
AcDbVertex
100
AcDb2dVertex
 10
2171.000006517408
 20
1967.000002519093
 30
-1379.051287506078
  0
VERTEX
  5
782
330
57F
100
AcDbEntity
  8
OBJECT
100
AcDbVertex
100
AcDb2dVertex
 10
2169.000006517408
 20
1967.000002519093
 30
-1379.051287506078
 42
0.4142135623730952
  0
VERTEX
  5
783
330
57F
100
AcDbEntity
  8
OBJECT
100
AcDbVertex
100
AcDb2dVertex
 10
2161.000006517406
 20
1959.000002519093
 30
-1379.051287506078
  0
VERTEX
  5
784
330
57F
100
AcDbEntity
  8
OBJECT
100
AcDbVertex
100
AcDb2dVertex
 10
2161.000006517406
 20
1925.000002519093
 30
-1379.051287506078
 42
0.4142135623730952
  0
VERTEX
  5
785
330
57F
100
AcDbEntity
  8
OBJECT
100
AcDbVertex
100
AcDb2dVertex
 10
2169.000006517408
 20
1917.000002519093
 30
-1379.051287506078
  0
VERTEX
  5
786
330
57F
100
AcDbEntity
  8
OBJECT
100
AcDbVertex
100
AcDb2dVertex
 10
2171.000006517408
 20
1917.000002519093
 30
-1379.051287506078
  0
SEQEND
  5
787
330
57F
100
AcDbEntity
  8
OBJECT
  0
POLYLINE
  5
580
330
158
100
AcDbEntity
  8
OBJECT
100
AcDb2dPolyline
 66
     1
 10
0.0
 20
0.0
 30
-1379.051287506078
  0
VERTEX
  5
788
330
580
100
AcDbEntity
  8
OBJECT
100
AcDbVertex
100
AcDb2dVertex
 10
1941.000006517408
 20
1967.000002519093
 30
-1379.051287506078
  0
VERTEX
  5
789
330
580
100
AcDbEntity
  8
OBJECT
100
AcDbVertex
100
AcDb2dVertex
 10
1943.000006517408
 20
1967.000002519093
 30
-1379.051287506078
 42
-0.4142135623730952
  0
VERTEX
  5
78A
330
580
100
AcDbEntity
  8
OBJECT
100
AcDbVertex
100
AcDb2dVertex
 10
1951.000006517408
 20
1959.000002519093
 30
-1379.051287506078
  0
VERTEX
  5
78B
330
580
100
AcDbEntity
  8
OBJECT
100
AcDbVertex
100
AcDb2dVertex
 10
1951.000006517408
 20
1925.000002519093
 30
-1379.051287506078
 42
-0.4142135623730952
  0
VERTEX
  5
78C
330
580
100
AcDbEntity
  8
OBJECT
100
AcDbVertex
100
AcDb2dVertex
 10
1943.000006517408
 20
1917.000002519093
 30
-1379.051287506078
  0
VERTEX
  5
78D
330
580
100
AcDbEntity
  8
OBJECT
100
AcDbVertex
100
AcDb2dVertex
 10
1941.000006517408
 20
1917.000002519093
 30
-1379.051287506078
  0
SEQEND
  5
78E
330
580
100
AcDbEntity
  8
OBJECT
  0
LINE
  5
581
330
158
100
AcDbEntity
  8
OBJECT
100
AcDbLine
 10
1943.000006517408
 20
1967.000002519093
 30
-1379.051287506078
 11
1943.000006517408
 21
1917.000002519093
 31
-1379.051287506078
  0
POLYLINE
  5
582
330
158
100
AcDbEntity
  8
OBJECT
100
AcDb2dPolyline
 66
     1
 10
0.0
 20
0.0
 30
-1379.051287506078
 70
     1
  0
VERTEX
  5
78F
330
582
100
AcDbEntity
  8
OBJECT
100
AcDbVertex
100
AcDb2dVertex
 10
1951.000006517408
 20
1959.000002519093
 30
-1379.051287506078
  0
VERTEX
  5
790
330
582
100
AcDbEntity
  8
OBJECT
100
AcDbVertex
100
AcDb2dVertex
 10
2161.000006517406
 20
1959.000002519093
 30
-1379.051287506078
  0
VERTEX
  5
791
330
582
100
AcDbEntity
  8
OBJECT
100
AcDbVertex
100
AcDb2dVertex
 10
2161.000006517406
 20
1925.000002519093
 30
-1379.051287506078
  0
VERTEX
  5
792
330
582
100
AcDbEntity
  8
OBJECT
100
AcDbVertex
100
AcDb2dVertex
 10
1951.000006517408
 20
1925.000002519093
 30
-1379.051287506078
  0
SEQEND
  5
793
330
582
100
AcDbEntity
  8
OBJECT
  0
LINE
  5
583
330
158
100
AcDbEntity
  8
OBJECT
100
AcDbLine
 10
1842.000006517408
 20
2301.000002519093
 30
-1379.051287506078
 11
1842.000006517408
 21
2251.000002519093
 31
-1379.051287506078
  0
POLYLINE
  5
584
330
158
100
AcDbEntity
  8
OBJECT
100
AcDb2dPolyline
 66
     1
 10
0.0
 20
0.0
 30
-1379.051287506078
  0
VERTEX
  5
794
330
584
100
AcDbEntity
  8
OBJECT
100
AcDbVertex
100
AcDb2dVertex
 10
1844.000006517408
 20
2301.000002519093
 30
-1379.051287506078
  0
VERTEX
  5
795
330
584
100
AcDbEntity
  8
OBJECT
100
AcDbVertex
100
AcDb2dVertex
 10
1842.000006517408
 20
2301.000002519093
 30
-1379.051287506078
 42
0.4142135623730952
  0
VERTEX
  5
796
330
584
100
AcDbEntity
  8
OBJECT
100
AcDbVertex
100
AcDb2dVertex
 10
1834.000006517408
 20
2293.000002519093
 30
-1379.051287506078
  0
VERTEX
  5
797
330
584
100
AcDbEntity
  8
OBJECT
100
AcDbVertex
100
AcDb2dVertex
 10
1834.000006517408
 20
2259.000002519092
 30
-1379.051287506078
 42
0.4142135623730952
  0
VERTEX
  5
798
330
584
100
AcDbEntity
  8
OBJECT
100
AcDbVertex
100
AcDb2dVertex
 10
1842.000006517408
 20
2251.000002519093
 30
-1379.051287506078
  0
VERTEX
  5
799
330
584
100
AcDbEntity
  8
OBJECT
100
AcDbVertex
100
AcDb2dVertex
 10
1844.000006517408
 20
2251.000002519093
 30
-1379.051287506078
  0
SEQEND
  5
79A
330
584
100
AcDbEntity
  8
OBJECT
  0
LINE
  5
585
330
158
100
AcDbEntity
  8
OBJECT
100
AcDbLine
 10
1842.000006517408
 20
1967.000002519093
 30
-1379.051287506078
 11
1842.000006517408
 21
1917.000002519093
 31
-1379.051287506078
  0
POLYLINE
  5
586
330
158
100
AcDbEntity
  8
OBJECT
100
AcDb2dPolyline
 66
     1
 10
0.0
 20
0.0
 30
-1379.051287506078
  0
VERTEX
  5
79B
330
586
100
AcDbEntity
  8
OBJECT
100
AcDbVertex
100
AcDb2dVertex
 10
1844.000006517408
 20
1967.000002519093
 30
-1379.051287506078
  0
VERTEX
  5
79C
330
586
100
AcDbEntity
  8
OBJECT
100
AcDbVertex
100
AcDb2dVertex
 10
1842.000006517408
 20
1967.000002519093
 30
-1379.051287506078
 42
0.4142135623730952
  0
VERTEX
  5
79D
330
586
100
AcDbEntity
  8
OBJECT
100
AcDbVertex
100
AcDb2dVertex
 10
1834.000006517408
 20
1959.000002519093
 30
-1379.051287506078
  0
VERTEX
  5
79E
330
586
100
AcDbEntity
  8
OBJECT
100
AcDbVertex
100
AcDb2dVertex
 10
1834.000006517408
 20
1925.000002519093
 30
-1379.051287506078
 42
0.4142135623730952
  0
VERTEX
  5
79F
330
586
100
AcDbEntity
  8
OBJECT
100
AcDbVertex
100
AcDb2dVertex
 10
1842.000006517408
 20
1917.000002519093
 30
-1379.051287506078
  0
VERTEX
  5
7A0
330
586
100
AcDbEntity
  8
OBJECT
100
AcDbVertex
100
AcDb2dVertex
 10
1844.000006517408
 20
1917.000002519093
 30
-1379.051287506078
  0
SEQEND
  5
7A1
330
586
100
AcDbEntity
  8
OBJECT
  0
LINE
  5
587
330
158
100
AcDbEntity
  8
OBJECT
100
AcDbLine
 10
2169.000006517408
 20
1635.000002519093
 30
-1379.051287506078
 11
2169.000006517408
 21
1585.000002519093
 31
-1379.051287506078
  0
POLYLINE
  5
588
330
158
100
AcDbEntity
  8
OBJECT
100
AcDb2dPolyline
 66
     1
 10
0.0
 20
0.0
 30
-1379.051287506078
  0
VERTEX
  5
7A2
330
588
100
AcDbEntity
  8
OBJECT
100
AcDbVertex
100
AcDb2dVertex
 10
2171.000006517408
 20
1635.000002519093
 30
-1379.051287506078
  0
VERTEX
  5
7A3
330
588
100
AcDbEntity
  8
OBJECT
100
AcDbVertex
100
AcDb2dVertex
 10
2169.000006517408
 20
1635.000002519093
 30
-1379.051287506078
 42
0.4142135623730952
  0
VERTEX
  5
7A4
330
588
100
AcDbEntity
  8
OBJECT
100
AcDbVertex
100
AcDb2dVertex
 10
2161.000006517406
 20
1627.000002519093
 30
-1379.051287506078
  0
VERTEX
  5
7A5
330
588
100
AcDbEntity
  8
OBJECT
100
AcDbVertex
100
AcDb2dVertex
 10
2161.000006517406
 20
1593.000002519093
 30
-1379.051287506078
 42
0.4142135623730952
  0
VERTEX
  5
7A6
330
588
100
AcDbEntity
  8
OBJECT
100
AcDbVertex
100
AcDb2dVertex
 10
2169.000006517408
 20
1585.000002519093
 30
-1379.051287506078
  0
VERTEX
  5
7A7
330
588
100
AcDbEntity
  8
OBJECT
100
AcDbVertex
100
AcDb2dVertex
 10
2171.000006517408
 20
1585.000002519093
 30
-1379.051287506078
  0
SEQEND
  5
7A8
330
588
100
AcDbEntity
  8
OBJECT
  0
POLYLINE
  5
589
330
158
100
AcDbEntity
  8
OBJECT
100
AcDb2dPolyline
 66
     1
 10
0.0
 20
0.0
 30
-1379.051287506078
  0
VERTEX
  5
7A9
330
589
100
AcDbEntity
  8
OBJECT
100
AcDbVertex
100
AcDb2dVertex
 10
1941.000006517408
 20
1635.000002519093
 30
-1379.051287506078
  0
VERTEX
  5
7AA
330
589
100
AcDbEntity
  8
OBJECT
100
AcDbVertex
100
AcDb2dVertex
 10
1943.000006517408
 20
1635.000002519093
 30
-1379.051287506078
 42
-0.4142135623730952
  0
VERTEX
  5
7AB
330
589
100
AcDbEntity
  8
OBJECT
100
AcDbVertex
100
AcDb2dVertex
 10
1951.000006517408
 20
1627.000002519093
 30
-1379.051287506078
  0
VERTEX
  5
7AC
330
589
100
AcDbEntity
  8
OBJECT
100
AcDbVertex
100
AcDb2dVertex
 10
1951.000006517408
 20
1593.000002519093
 30
-1379.051287506078
 42
-0.4142135623730952
  0
VERTEX
  5
7AD
330
589
100
AcDbEntity
  8
OBJECT
100
AcDbVertex
100
AcDb2dVertex
 10
1943.000006517408
 20
1585.000002519093
 30
-1379.051287506078
  0
VERTEX
  5
7AE
330
589
100
AcDbEntity
  8
OBJECT
100
AcDbVertex
100
AcDb2dVertex
 10
1941.000006517408
 20
1585.000002519093
 30
-1379.051287506078
  0
SEQEND
  5
7AF
330
589
100
AcDbEntity
  8
OBJECT
  0
LINE
  5
58A
330
158
100
AcDbEntity
  8
OBJECT
100
AcDbLine
 10
1943.000006517408
 20
1635.000002519093
 30
-1379.051287506078
 11
1943.000006517408
 21
1585.000002519093
 31
-1379.051287506078
  0
POLYLINE
  5
58B
330
158
100
AcDbEntity
  8
OBJECT
100
AcDb2dPolyline
 66
     1
 10
0.0
 20
0.0
 30
-1379.051287506078
 70
     1
  0
VERTEX
  5
7B0
330
58B
100
AcDbEntity
  8
OBJECT
100
AcDbVertex
100
AcDb2dVertex
 10
1951.000006517408
 20
1627.000002519093
 30
-1379.051287506078
  0
VERTEX
  5
7B1
330
58B
100
AcDbEntity
  8
OBJECT
100
AcDbVertex
100
AcDb2dVertex
 10
2161.000006517406
 20
1627.000002519093
 30
-1379.051287506078
  0
VERTEX
  5
7B2
330
58B
100
AcDbEntity
  8
OBJECT
100
AcDbVertex
100
AcDb2dVertex
 10
2161.000006517406
 20
1593.000002519093
 30
-1379.051287506078
  0
VERTEX
  5
7B3
330
58B
100
AcDbEntity
  8
OBJECT
100
AcDbVertex
100
AcDb2dVertex
 10
1951.000006517408
 20
1593.000002519093
 30
-1379.051287506078
  0
SEQEND
  5
7B4
330
58B
100
AcDbEntity
  8
OBJECT
  0
LINE
  5
58C
330
158
100
AcDbEntity
  8
OBJECT
100
AcDbLine
 10
1842.000006517408
 20
1635.000002519093
 30
-1379.051287506078
 11
1842.000006517408
 21
1585.000002519093
 31
-1379.051287506078
  0
POLYLINE
  5
58D
330
158
100
AcDbEntity
  8
OBJECT
100
AcDb2dPolyline
 66
     1
 10
0.0
 20
0.0
 30
-1379.051287506078
  0
VERTEX
  5
7B5
330
58D
100
AcDbEntity
  8
OBJECT
100
AcDbVertex
100
AcDb2dVertex
 10
1844.000006517408
 20
1635.000002519093
 30
-1379.051287506078
  0
VERTEX
  5
7B6
330
58D
100
AcDbEntity
  8
OBJECT
100
AcDbVertex
100
AcDb2dVertex
 10
1842.000006517408
 20
1635.000002519093
 30
-1379.051287506078
 42
0.4142135623730952
  0
VERTEX
  5
7B7
330
58D
100
AcDbEntity
  8
OBJECT
100
AcDbVertex
100
AcDb2dVertex
 10
1834.000006517408
 20
1627.000002519093
 30
-1379.051287506078
  0
VERTEX
  5
7B8
330
58D
100
AcDbEntity
  8
OBJECT
100
AcDbVertex
100
AcDb2dVertex
 10
1834.000006517408
 20
1593.000002519093
 30
-1379.051287506078
 42
0.4142135623730952
  0
VERTEX
  5
7B9
330
58D
100
AcDbEntity
  8
OBJECT
100
AcDbVertex
100
AcDb2dVertex
 10
1842.000006517408
 20
1585.000002519093
 30
-1379.051287506078
  0
VERTEX
  5
7BA
330
58D
100
AcDbEntity
  8
OBJECT
100
AcDbVertex
100
AcDb2dVertex
 10
1844.000006517408
 20
1585.000002519093
 30
-1379.051287506078
  0
SEQEND
  5
7BB
330
58D
100
AcDbEntity
  8
OBJECT
  0
REGION
  5
58E
330
158
100
AcDbEntity
  8
OBJECT
100
AcDbModelerGeometry
 70
     1
  1
noi gi n o          
  1
=0;& {n {m {rn {rn |
  1
9@=0;&r3(;r>++-6= {rn {l {rn {o |
  1
3*2/ {k {rn {j {o |
  1
-:9@)+r3(;r>++-6= {rn {rn {n {o {i {h |
  1
-:9@)+r3(;r>++-6= {rn {rn {rn {m {i {h |
  1
,7:33 {g {rn {rn {f {m |
  1
-:961:2:1+ {rn o o o o nqghlkokjomgigijml o o k o o o o o o o o o |
  1
):-+:'@+:2/3>+: {rn l o n g |
  1
-:9@)+r3(;r>++-6= {rn {rn {rn {j {i {h |
  1
9><: {no {rn {nn {j {rn {nm 90-(>-; ;0*=3: 0*+ |
  1
99><:r3(;r>++-6= {rn {nl {rn {f |
  1
300/ {rn {nk {nj {f |
  1
/3>1:r,*-9><: {rn mmfjqjooooijnhkoff njjjqooooomjnfofkg rnlhfqojnmghjoiohfm o o n n o o o V V V V |
  1
-:9@)+r3(;r>++-6= {rn {rn {no {f {i {rn |
  1
300/ {rn {ni {nh {f |
  1
<0:;8: {ng {nf {mo {rn {mn n {nn {rn |
  1
300/ {rn {rn {mm {f |
  1
<0:;8: {ml {nh {nh {rn {mk o {nk {rn |
  1
<0/>-r3(;r>++-6= {rn {rn {rn {nj |
  1
<0:;8: {mj {mi {nj {rn {mh n {nn {rn |
  1
<0:;8: {mg {nj {mf {rn {lo n {nn {rn |
  1
:;8: {ln {lm {ll {nj {lk o |
  1
<0:;8: {lj {mm {mm {rn {li o {ni {rn |
  1
<0/>-r3(;r>++-6= {rn {rn {rn {nh |
  1
:;8: {lh {lg {lg {nh {lf o |
  1
<0/>-r3(;r>++-6= {rn {rn {rn {nf |
  1
<0:;8: {ko {kn {nf {rn {km n {nn {rn |
  1
:;8: {kl {kk {lm {nf {kj o |
  1
<0/>-r3(;r>++-6= {rn {rn {rn {mo |
  1
<0:;8: {ki {mo {kh {rn {kg n {nn {rn |
  1
:;8: {kf {ll {jo {mo {jn o |
  1
:/>-r3(;r>++-6= {rn {rn {rn {mn |
  1
):-+:' {rn {mn {jm |
  1
):-+:' {rn {mn {jl |
  1
,+->687+r<*-): {rn mnflqjooooijnhkogn njjjqooooomjnfofkg rnlhfqojnmghjoiohfm rn o o V V |
  1
<0/>-r3(;r>++-6= {rn {rn {rn {mm |
  1
:;8: {jk {jj {jj {mm {ji o |
  1
:/>-r3(;r>++-6= {rn {rn {rn {mk |
  1
):-+:' {rn {mk {jh |
  1
:336/,:r<*-): {rn mmnkqjooooijnhkohm nikoqooooomjnfoflf rnlhfqojnmghjoiohfm o o rn nk o o n V V |
  1
<0/>-r3(;r>++-6= {rn {rn {rn {mi |
  1
<0:;8: {jg {jf {mi {rn {io n {nn {rn |
  1
:;8: {in {im {kk {mi {il o |
  1
:/>-r3(;r>++-6= {rn {rn {rn {mh |
  1
):-+:' {rn {mh {ik |
  1
:336/,:r<*-): {rn mmfjqjooooijnhkoff njjfqooooomjnfofkg rnlhfqojnmghjoiohfm o o rn mqgmgkmhnmkhkinion rmqgmgkmhnmkhkinion o n V V |
  1
<0/>-r3(;r>++-6= {rn {rn {rn {mf |
  1
<0:;8: {ij {mf {jf {rn {ii n {nn {rn |
  1
:;8: {ih {jo {ig {mf {if o |
  1
:/>-r3(;r>++-6= {rn {rn {rn {lo |
  1
):-+:' {rn {kg {ho |
  1
:336/,:r<*-): {rn mnflqjooooijnhkogn njjfqooooomjnfofkg rnlhfqojnmghjoiohfm o o rn rmqgmgkmhnmkhkingfg rmqgmgkmhnmkhkingfg o n V V |
  1
/061+ {rn mmfjqjooooijnhkoff njjjqooooomjnfofkg rnlhfqojnmghjoiohfm |
  1
/061+ {rn mnflqjooooijnhkogn njjjqooooomjnfofkg rnlhfqojnmghjoiohfm |
  1
:/>-r3(;r>++-6= {rn {rn {rn {li |
  1
):-+:' {rn {li {hn |
  1
:336/,:r<*-): {rn mmhkqjooooijnhknog njgoqooooomjnfofkg rnlhfqojnmghjoiohfm o o rn rnk o o n V V |
  1
/061+ {rn mmmgqjooooijnhkohm nikoqooooomjnfoflf rnlhfqojnmghjoiohfm |
  1
<0/>-r3(;r>++-6= {rn {rn {rn {kn |
  1
<0:;8: {hm {kh {kn {rn {hl n {nn {rn |
  1
:;8: {hk {hj {im {kn {hi o |
  1
:/>-r3(;r>++-6= {rn {rn {rn {km |
  1
):-+:' {rn {km {hh |
  1
,+->687+r<*-): {rn mmffqjooooijnhkoff njjfqooooomjnfofkg rnlhfqojnmghjoiohfm mqihkfgkknifhfmnmh:ronk rn o V V |
  1
/061+ {rn mmffqjooooijnhkoff njjfqooooomjnfofkg rnlhfqojnmghjoiohfm |
  1
<0/>-r3(;r>++-6= {rn {rn {rn {kh |
  1
:;8: {hg {ig {hf {kh {go o |
  1
:/>-r3(;r>++-6= {rn {rn {rn {kg |
  1
):-+:' {rn {ii {gn |
  1
,+->687+r<*-): {rn mngfqjooooijnhkogn niinqooooomjnfofkg rnlhfqojnmghjoiohfm o n o V V |
  1
/061+ {rn mngfqjooooijnhkogn njjfqooooomjnfofkg rnlhfqojnmghjoiohfm |
  1
/061+ {rn mmioqjooooijnhknog njgoqooooomjnfofkg rnlhfqojnmghjoiohfm |
  1
<0/>-r3(;r>++-6= {rn {rn {rn {jf |
  1
:;8: {gm {hf {hj {jf {gl o |
  1
:/>-r3(;r>++-6= {rn {rn {rn {io |
  1
):-+:' {rn {io {gk |
  1
:336/,:r<*-): {rn mmfjqjooooijnhkohm niinqooooomjnfoflf rnlhfqojnmghjoiohfm o o rn mqgmgkmhnmkhkingfg mqgmgkmhnmkhkingfg o n V V |
  1
/061+ {rn mmffqjooooijnhkohm niinqooooomjnfoflf rnlhfqojnmghjoiohfm |
  1
:/>-r3(;r>++-6= {rn {rn {rn {ii |
  1
):-+:' {rn {hl {gj |
  1
:336/,:r<*-): {rn mnflqjooooijnhkogn niinqooooomjnfofkg rnlhfqojnmghjoiohfm o o rn rmqgmgkmhnmkhkingkn mqgmgkmhnmkhkingkn o n V V |
  1
/061+ {rn mngfqjooooijnhkogn niinqooooomjnfofkg rnlhfqojnmghjoiohfm |
  1
:/>-r3(;r>++-6= {rn {rn {rn {hl |
  1
,+->687+r<*-): {rn mmfjqjooooijnhkohm niijqooooomjnfoflf rnlhfqojnmghjoiohfm n rkqkjglohlinilmokoj:ronj o V V |
  1
/061+ {rn mmfjqjooooijnhkohm niijqooooomjnfoflf rnlhfqojnmghjoiohfm |
  1
/061+ {rn mnflqjooooijnhkogn niijqooooomjnfofkg rnlhfqojnmghjoiohfm |
  0
POLYLINE
  5
58F
330
158
100
AcDbEntity
  8
OBJECT
100
AcDb2dPolyline
 66
     1
 10
0.0
 20
0.0
 30
-1379.051287506078
  0
VERTEX
  5
7BC
330
58F
100
AcDbEntity
  8
OBJECT
100
AcDbVertex
100
AcDb2dVertex
 10
2196.000006517408
 20
2555.000002519097
 30
-1379.051287506078
  0
VERTEX
  5
7BD
330
58F
100
AcDbEntity
  8
OBJECT
100
AcDbVertex
100
AcDb2dVertex
 10
2196.000006517408
 20
1665.000002519095
 30
-1379.051287506078
  0
SEQEND
  5
7BE
330
58F
100
AcDbEntity
  8
OBJECT
  0
POLYLINE
  5
590
330
158
100
AcDbEntity
  8
OBJECT
100
AcDb2dPolyline
 66
     1
 10
0.0
 20
0.0
 30
-1379.051287506078
 70
     1
  0
VERTEX
  5
7BF
330
590
100
AcDbEntity
  8
OBJECT
100
AcDbVertex
100
AcDb2dVertex
 10
2261.296388924901
 20
2551.500002519095
 30
-1379.051287506078
  0
VERTEX
  5
7C0
330
590
100
AcDbEntity
  8
OBJECT
100
AcDbVertex
100
AcDb2dVertex
 10
2261.296388924901
 20
1668.500002519095
 30
-1379.051287506078
  0
VERTEX
  5
7C1
330
590
100
AcDbEntity
  8
OBJECT
100
AcDbVertex
100
AcDb2dVertex
 10
2227.296388924901
 20
1668.500002519095
 30
-1379.051287506078
  0
VERTEX
  5
7C2
330
590
100
AcDbEntity
  8
OBJECT
100
AcDbVertex
100
AcDb2dVertex
 10
2227.296388924901
 20
2551.500002519095
 30
-1379.051287506078
  0
SEQEND
  5
7C3
330
590
100
AcDbEntity
  8
OBJECT
  0
POLYLINE
  5
591
330
158
100
AcDbEntity
  8
OBJECT
100
AcDb2dPolyline
 66
     1
 10
0.0
 20
0.0
 30
-1379.051287506078
 70
     1
  0
VERTEX
  5
7C4
330
591
100
AcDbEntity
  8
OBJECT
100
AcDbVertex
100
AcDb2dVertex
 10
1844.000006517408
 20
3695.000002519093
 30
-1379.051287506078
  0
VERTEX
  5
7C5
330
591
100
AcDbEntity
  8
OBJECT
100
AcDbVertex
100
AcDb2dVertex
 10
1941.000006517408
 20
3695.000002519093
 30
-1379.051287506078
  0
VERTEX
  5
7C6
330
591
100
AcDbEntity
  8
OBJECT
100
AcDbVertex
100
AcDb2dVertex
 10
1941.000006517408
 20
1525.000002519093
 30
-1379.051287506078
  0
VERTEX
  5
7C7
330
591
100
AcDbEntity
  8
OBJECT
100
AcDbVertex
100
AcDb2dVertex
 10
1844.000006517408
 20
1525.000002519093
 30
-1379.051287506078
  0
SEQEND
  5
7C8
330
591
100
AcDbEntity
  8
OBJECT
  0
POLYLINE
  5
592
330
158
100
AcDbEntity
  8
OBJECT
100
AcDb2dPolyline
 66
     1
 10
0.0
 20
0.0
 30
-1379.051287506078
  0
VERTEX
  5
7C9
330
592
100
AcDbEntity
  8
OBJECT
100
AcDbVertex
100
AcDb2dVertex
 10
2196.000006517408
 20
1555.000002519093
 30
-1379.051287506078
  0
VERTEX
  5
7CA
330
592
100
AcDbEntity
  8
OBJECT
100
AcDbVertex
100
AcDb2dVertex
 10
2196.000006517408
 20
1503.000002519093
 30
-1379.051287506078
  0
VERTEX
  5
7CB
330
592
100
AcDbEntity
  8
OBJECT
100
AcDbVertex
100
AcDb2dVertex
 10
2171.000006517408
 20
1503.000002519093
 30
-1379.051287506078
  0
VERTEX
  5
7CC
330
592
100
AcDbEntity
  8
OBJECT
100
AcDbVertex
100
AcDb2dVertex
 10
2171.000006517408
 20
3721.000002519093
 30
-1379.051287506078
  0
VERTEX
  5
7CD
330
592
100
AcDbEntity
  8
OBJECT
100
AcDbVertex
100
AcDb2dVertex
 10
2196.000006517408
 20
3721.000002519093
 30
-1379.051287506078
  0
VERTEX
  5
7CE
330
592
100
AcDbEntity
  8
OBJECT
100
AcDbVertex
100
AcDb2dVertex
 10
2196.000006517408
 20
3665.000002519095
 30
-1379.051287506078
  0
SEQEND
  5
7CF
330
592
100
AcDbEntity
  8
OBJECT
  0
POLYLINE
  5
593
330
158
100
AcDbEntity
  8
OBJECT
100
AcDb2dPolyline
 66
     1
 10
0.0
 20
0.0
 30
-1379.051287506078
  0
VERTEX
  5
7D0
330
593
100
AcDbEntity
  8
OBJECT
100
AcDbVertex
100
AcDb2dVertex
 10
1563.910767202562
 20
3555.000002519094
 30
-1379.051287506078
 42
-0.2482675702532814
  0
VERTEX
  5
7D1
330
593
100
AcDbEntity
  8
OBJECT
100
AcDbVertex
100
AcDb2dVertex
 10
1557.2963889249
 20
3551.500002519093
 30
-1379.051287506078
  0
VERTEX
  5
7D2
330
593
100
AcDbEntity
  8
OBJECT
100
AcDbVertex
100
AcDb2dVertex
 10
1523.2963889249
 20
3551.500002519093
 30
-1379.051287506078
 42
-0.2482675702532814
  0
VERTEX
  5
7D3
330
593
100
AcDbEntity
  8
OBJECT
100
AcDbVertex
100
AcDb2dVertex
 10
1516.682010647238
 20
3555.000002519094
 30
-1379.051287506078
  0
SEQEND
  5
7D4
330
593
100
AcDbEntity
  8
OBJECT
  0
LINE
  5
594
330
158
100
AcDbEntity
  8
OBJECT
100
AcDbLine
 10
1616.000006517408
 20
3635.000002519094
 30
-1379.051287506078
 11
1616.000006517408
 21
3585.000002519093
 31
-1379.051287506078
  0
POLYLINE
  5
595
330
158
100
AcDbEntity
  8
OBJECT
100
AcDb2dPolyline
 66
     1
 10
0.0
 20
0.0
 30
-1379.051287506078
  0
VERTEX
  5
7D5
330
595
100
AcDbEntity
  8
OBJECT
100
AcDbVertex
100
AcDb2dVertex
 10
1614.000006517408
 20
3635.000002519094
 30
-1379.051287506078
  0
VERTEX
  5
7D6
330
595
100
AcDbEntity
  8
OBJECT
100
AcDbVertex
100
AcDb2dVertex
 10
1616.000006517408
 20
3635.000002519094
 30
-1379.051287506078
 42
-0.4142135623730952
  0
VERTEX
  5
7D7
330
595
100
AcDbEntity
  8
OBJECT
100
AcDbVertex
100
AcDb2dVertex
 10
1624.000006517408
 20
3627.000002519094
 30
-1379.051287506078
  0
VERTEX
  5
7D8
330
595
100
AcDbEntity
  8
OBJECT
100
AcDbVertex
100
AcDb2dVertex
 10
1624.000006517408
 20
3593.000002519094
 30
-1379.051287506078
 42
-0.4142135623730952
  0
VERTEX
  5
7D9
330
595
100
AcDbEntity
  8
OBJECT
100
AcDbVertex
100
AcDb2dVertex
 10
1616.000006517408
 20
3585.000002519093
 30
-1379.051287506078
  0
VERTEX
  5
7DA
330
595
100
AcDbEntity
  8
OBJECT
100
AcDbVertex
100
AcDb2dVertex
 10
1614.000006517408
 20
3585.000002519093
 30
-1379.051287506078
  0
SEQEND
  5
7DB
330
595
100
AcDbEntity
  8
OBJECT
  0
REGION
  5
596
330
158
100
AcDbEntity
  8
OBJECT
100
AcDbModelerGeometry
 70
     1
  1
noi gi n o          
  1
=0;& {n {m {rn {rn |
  1
9@=0;&r3(;r>++-6= {rn {l {rn {o |
  1
3*2/ {k {rn {j {o |
  1
-:9@)+r3(;r>++-6= {rn {rn {n {o {i {h |
  1
-:9@)+r3(;r>++-6= {rn {rn {rn {m {i {h |
  1
,7:33 {g {rn {rn {f {m |
  1
-:961:2:1+ {rn o o o o nqghlkokjomgigijml o o k o o o o o o o o o |
  1
):-+:'@+:2/3>+: {rn l o n g |
  1
-:9@)+r3(;r>++-6= {rn {rn {rn {j {i {h |
  1
9><: {no {rn {nn {j {rn {nm 90-(>-; ;0*=3: 0*+ |
  1
99><:r3(;r>++-6= {rn {nl {rn {f |
  1
300/ {rn {nk {nj {f |
  1
/3>1:r,*-9><: {rn njfnqjooooijnhkof ljjjqooooomjnfofkg rnlhfqojnmghjoiohfm o o n n o o o V V V V |
  1
-:9@)+r3(;r>++-6= {rn {rn {no {f {i {rn |
  1
300/ {rn {ni {nh {f |
  1
<0:;8: {ng {nf {mo {rn {mn n {nn {rn |
  1
300/ {rn {rn {mm {f |
  1
<0:;8: {ml {nh {nh {rn {mk o {nk {rn |
  1
<0/>-r3(;r>++-6= {rn {rn {rn {nj |
  1
<0:;8: {mj {mi {nj {rn {mh n {nn {rn |
  1
<0:;8: {mg {nj {mf {rn {lo n {nn {rn |
  1
:;8: {ln {lm {ll {nj {lk o |
  1
<0:;8: {lj {mm {mm {rn {li o {ni {rn |
  1
<0/>-r3(;r>++-6= {rn {rn {rn {nh |
  1
:;8: {lh {lg {lg {nh {lf o |
  1
<0/>-r3(;r>++-6= {rn {rn {rn {nf |
  1
<0:;8: {ko {kn {nf {rn {km n {nn {rn |
  1
:;8: {kl {kk {lm {nf {kj o |
  1
<0/>-r3(;r>++-6= {rn {rn {rn {mo |
  1
<0:;8: {ki {mo {kh {rn {kg n {nn {rn |
  1
:;8: {kf {ll {jo {mo {jn o |
  1
:/>-r3(;r>++-6= {rn {rn {rn {mn |
  1
):-+:' {rn {mn {jm |
  1
):-+:' {rn {mn {jl |
  1
,+->687+r<*-): {rn nkgfqjooooijnhkohm ljjjqooooomjnfofkg rnlhfqojnmghjoiohfm rn o o V V |
  1
<0/>-r3(;r>++-6= {rn {rn {rn {mm |
  1
:;8: {jk {jj {jj {mm {ji o |
  1
:/>-r3(;r>++-6= {rn {rn {rn {mk |
  1
):-+:' {rn {mk {jh |
  1
:336/,:r<*-): {rn njnoqjooooijnhkoil likoqooooomjnfoflf rnlhfqojnmghjoiohfm o o rn nk o o n V V |
  1
<0/>-r3(;r>++-6= {rn {rn {rn {mi |
  1
<0:;8: {jg {jf {mi {rn {io n {nn {rn |
  1
:;8: {in {im {kk {mi {il o |
  1
:/>-r3(;r>++-6= {rn {rn {rn {mh |
  1
):-+:' {rn {mh {ik |
  1
:336/,:r<*-): {rn njfnqjooooijnhkof ljjfqooooomjnfofkg rnlhfqojnmghjoiohfm o o rn mqgmgkmhnmkhkinion rmqgmgkmhnmkhkinion o n V V |
  1
<0/>-r3(;r>++-6= {rn {rn {rn {mf |
  1
<0:;8: {ij {mf {jf {rn {ii n {nn {rn |
  1
:;8: {ih {jo {ig {mf {if o |
  1
:/>-r3(;r>++-6= {rn {rn {rn {lo |
  1
):-+:' {rn {kg {ho |
  1
:336/,:r<*-): {rn nkgfqjooooijnhkohm ljjfqooooomjnfofkg rnlhfqojnmghjoiohfm o o rn rmqgmgkmhnmkhkingfg rmqgmgkmhnmkhkingfg o n V V |
  1
/061+ {rn njfnqjooooijnhkof ljjjqooooomjnfofkg rnlhfqojnmghjoiohfm |
  1
/061+ {rn nkgfqjooooijnhkohm ljjjqooooomjnfofkg rnlhfqojnmghjoiohfm |
  1
:/>-r3(;r>++-6= {rn {rn {rn {li |
  1
):-+:' {rn {li {hn |
  1
:336/,:r<*-): {rn njhoqjooooijnhkoff ljgoqooooomjnfofkg rnlhfqojnmghjoiohfm o o rn rnk o o n V V |
  1
/061+ {rn njmkqjooooijnhkoil likoqooooomjnfoflf rnlhfqojnmghjoiohfm |
  1
<0/>-r3(;r>++-6= {rn {rn {rn {kn |
  1
<0:;8: {hm {kh {kn {rn {hl n {nn {rn |
  1
:;8: {hk {hj {im {kn {hi o |
  1
:/>-r3(;r>++-6= {rn {rn {rn {km |
  1
):-+:' {rn {km {hh |
  1
,+->687+r<*-): {rn njfjqjooooijnhkof ljjfqooooomjnfofkg rnlhfqojnmghjoiohfm mqihkfgkknifhfmnmh:ronk rn o V V |
  1
/061+ {rn njfjqjooooijnhkof ljjfqooooomjnfofkg rnlhfqojnmghjoiohfm |
  1
<0/>-r3(;r>++-6= {rn {rn {rn {kh |
  1
:;8: {hg {ig {hf {kh {go o |
  1
:/>-r3(;r>++-6= {rn {rn {rn {kg |
  1
):-+:' {rn {ii {gn |
  1
,+->687+r<*-): {rn nkgjqjooooijnhkohm liinqooooomjnfofkg rnlhfqojnmghjoiohfm o n o V V |
  1
/061+ {rn nkgjqjooooijnhkohm ljjfqooooomjnfofkg rnlhfqojnmghjoiohfm |
  1
/061+ {rn njjiqjooooijnhkoff ljgoqooooomjnfofkg rnlhfqojnmghjoiohfm |
  1
<0/>-r3(;r>++-6= {rn {rn {rn {jf |
  1
:;8: {gm {hf {hj {jf {gl o |
  1
:/>-r3(;r>++-6= {rn {rn {rn {io |
  1
):-+:' {rn {io {gk |
  1
:336/,:r<*-): {rn njfnqjooooijnhkoil liinqooooomjnfoflf rnlhfqojnmghjoiohfm o o rn mqgmgkmhnmkhkingfg mqgmgkmhnmkhkingfg o n V V |
  1
/061+ {rn njfjqjooooijnhkoil liinqooooomjnfoflf rnlhfqojnmghjoiohfm |
  1
:/>-r3(;r>++-6= {rn {rn {rn {ii |
  1
):-+:' {rn {hl {gj |
  1
:336/,:r<*-): {rn nkgfqjooooijnhkohm liinqooooomjnfofkg rnlhfqojnmghjoiohfm o o rn rmqgmgkmhnmkhkingkn mqgmgkmhnmkhkingkn o n V V |
  1
/061+ {rn nkgjqjooooijnhkohm liinqooooomjnfofkg rnlhfqojnmghjoiohfm |
  1
:/>-r3(;r>++-6= {rn {rn {rn {hl |
  1
,+->687+r<*-): {rn njfnqjooooijnhkoil liijqooooomjnfoflf rnlhfqojnmghjoiohfm n rkqkjglohlinilmokoj:ronj o V V |
  1
/061+ {rn njfnqjooooijnhkoil liijqooooomjnfoflf rnlhfqojnmghjoiohfm |
  1
/061+ {rn nkgfqjooooijnhkohm liijqooooomjnfofkg rnlhfqojnmghjoiohfm |
  0
POLYLINE
  5
597
330
158
100
AcDbEntity
  8
OBJECT
100
AcDb2dPolyline
 66
     1
 10
0.0
 20
0.0
 30
-1379.051287506078
  0
VERTEX
  5
7DC
330
597
100
AcDbEntity
  8
OBJECT
100
AcDbVertex
100
AcDb2dVertex
 10
1614.000006517408
 20
3303.000002519093
 30
-1379.051287506078
  0
VERTEX
  5
7DD
330
597
100
AcDbEntity
  8
OBJECT
100
AcDbVertex
100
AcDb2dVertex
 10
1616.000006517408
 20
3303.000002519093
 30
-1379.051287506078
 42
-0.4142135623730952
  0
VERTEX
  5
7DE
330
597
100
AcDbEntity
  8
OBJECT
100
AcDbVertex
100
AcDb2dVertex
 10
1624.000006517408
 20
3295.000002519093
 30
-1379.051287506078
  0
VERTEX
  5
7DF
330
597
100
AcDbEntity
  8
OBJECT
100
AcDbVertex
100
AcDb2dVertex
 10
1624.000006517408
 20
3261.000002519093
 30
-1379.051287506078
 42
-0.4142135623730952
  0
VERTEX
  5
7E0
330
597
100
AcDbEntity
  8
OBJECT
100
AcDbVertex
100
AcDb2dVertex
 10
1616.000006517408
 20
3253.000002519093
 30
-1379.051287506078
  0
VERTEX
  5
7E1
330
597
100
AcDbEntity
  8
OBJECT
100
AcDbVertex
100
AcDb2dVertex
 10
1614.000006517408
 20
3253.000002519093
 30
-1379.051287506078
  0
SEQEND
  5
7E2
330
597
100
AcDbEntity
  8
OBJECT
  0
LINE
  5
598
330
158
100
AcDbEntity
  8
OBJECT
100
AcDbLine
 10
1616.000006517408
 20
3303.000002519093
 30
-1379.051287506078
 11
1616.000006517408
 21
3253.000002519093
 31
-1379.051287506078
  0
POLYLINE
  5
599
330
158
100
AcDbEntity
  8
OBJECT
100
AcDb2dPolyline
 66
     1
 10
0.0
 20
0.0
 30
-1379.051287506078
  0
VERTEX
  5
7E3
330
599
100
AcDbEntity
  8
OBJECT
100
AcDbVertex
100
AcDb2dVertex
 10
1614.000006517408
 20
2969.000002519093
 30
-1379.051287506078
  0
VERTEX
  5
7E4
330
599
100
AcDbEntity
  8
OBJECT
100
AcDbVertex
100
AcDb2dVertex
 10
1616.000006517408
 20
2969.000002519093
 30
-1379.051287506078
 42
-0.4142135623730952
  0
VERTEX
  5
7E5
330
599
100
AcDbEntity
  8
OBJECT
100
AcDbVertex
100
AcDb2dVertex
 10
1624.000006517408
 20
2961.000002519093
 30
-1379.051287506078
  0
VERTEX
  5
7E6
330
599
100
AcDbEntity
  8
OBJECT
100
AcDbVertex
100
AcDb2dVertex
 10
1624.000006517408
 20
2927.000002519093
 30
-1379.051287506078
 42
-0.4142135623730952
  0
VERTEX
  5
7E7
330
599
100
AcDbEntity
  8
OBJECT
100
AcDbVertex
100
AcDb2dVertex
 10
1616.000006517408
 20
2919.000002519091
 30
-1379.051287506078
  0
VERTEX
  5
7E8
330
599
100
AcDbEntity
  8
OBJECT
100
AcDbVertex
100
AcDb2dVertex
 10
1614.000006517408
 20
2919.000002519091
 30
-1379.051287506078
  0
SEQEND
  5
7E9
330
599
100
AcDbEntity
  8
OBJECT
  0
LINE
  5
59A
330
158
100
AcDbEntity
  8
OBJECT
100
AcDbLine
 10
1616.000006517408
 20
2969.000002519093
 30
-1379.051287506078
 11
1616.000006517408
 21
2919.000002519091
 31
-1379.051287506078
  0
POLYLINE
  5
59B
330
158
100
AcDbEntity
  8
OBJECT
100
AcDb2dPolyline
 66
     1
 10
0.0
 20
0.0
 30
-1379.051287506078
  0
VERTEX
  5
7EA
330
59B
100
AcDbEntity
  8
OBJECT
100
AcDbVertex
100
AcDb2dVertex
 10
1563.910767202562
 20
2665.000002519093
 30
-1379.051287506078
 42
0.2482675702532814
  0
VERTEX
  5
7EB
330
59B
100
AcDbEntity
  8
OBJECT
100
AcDbVertex
100
AcDb2dVertex
 10
1557.2963889249
 20
2668.500002519095
 30
-1379.051287506078
  0
VERTEX
  5
7EC
330
59B
100
AcDbEntity
  8
OBJECT
100
AcDbVertex
100
AcDb2dVertex
 10
1523.2963889249
 20
2668.500002519095
 30
-1379.051287506078
 42
0.2482675702532814
  0
VERTEX
  5
7ED
330
59B
100
AcDbEntity
  8
OBJECT
100
AcDbVertex
100
AcDb2dVertex
 10
1516.682010647238
 20
2665.000002519093
 30
-1379.051287506078
  0
SEQEND
  5
7EE
330
59B
100
AcDbEntity
  8
OBJECT
  0
POLYLINE
  5
59C
330
158
100
AcDbEntity
  8
OBJECT
100
AcDb2dPolyline
 66
     1
 10
0.0
 20
0.0
 30
-1379.051287506078
  0
VERTEX
  5
7EF
330
59C
100
AcDbEntity
  8
OBJECT
100
AcDbVertex
100
AcDb2dVertex
 10
1563.910767202562
 20
2555.000002519093
 30
-1379.051287506078
 42
-0.2482675702532814
  0
VERTEX
  5
7F0
330
59C
100
AcDbEntity
  8
OBJECT
100
AcDbVertex
100
AcDb2dVertex
 10
1557.2963889249
 20
2551.500002519094
 30
-1379.051287506078
  0
VERTEX
  5
7F1
330
59C
100
AcDbEntity
  8
OBJECT
100
AcDbVertex
100
AcDb2dVertex
 10
1523.2963889249
 20
2551.500002519094
 30
-1379.051287506078
 42
-0.2482675702532814
  0
VERTEX
  5
7F2
330
59C
100
AcDbEntity
  8
OBJECT
100
AcDbVertex
100
AcDb2dVertex
 10
1516.682010647238
 20
2555.000002519093
 30
-1379.051287506078
  0
SEQEND
  5
7F3
330
59C
100
AcDbEntity
  8
OBJECT
  0
POLYLINE
  5
59D
330
158
100
AcDbEntity
  8
OBJECT
100
AcDb2dPolyline
 66
     1
 10
0.0
 20
0.0
 30
-1379.051287506078
  0
VERTEX
  5
7F4
330
59D
100
AcDbEntity
  8
OBJECT
100
AcDbVertex
100
AcDb2dVertex
 10
1614.000006517408
 20
2635.000002519093
 30
-1379.051287506078
  0
VERTEX
  5
7F5
330
59D
100
AcDbEntity
  8
OBJECT
100
AcDbVertex
100
AcDb2dVertex
 10
1616.000006517408
 20
2635.000002519093
 30
-1379.051287506078
 42
-0.4142135623730952
  0
VERTEX
  5
7F6
330
59D
100
AcDbEntity
  8
OBJECT
100
AcDbVertex
100
AcDb2dVertex
 10
1624.000006517408
 20
2627.000002519093
 30
-1379.051287506078
  0
VERTEX
  5
7F7
330
59D
100
AcDbEntity
  8
OBJECT
100
AcDbVertex
100
AcDb2dVertex
 10
1624.000006517408
 20
2593.000002519093
 30
-1379.051287506078
 42
-0.4142135623730952
  0
VERTEX
  5
7F8
330
59D
100
AcDbEntity
  8
OBJECT
100
AcDbVertex
100
AcDb2dVertex
 10
1616.000006517408
 20
2585.000002519093
 30
-1379.051287506078
  0
VERTEX
  5
7F9
330
59D
100
AcDbEntity
  8
OBJECT
100
AcDbVertex
100
AcDb2dVertex
 10
1614.000006517408
 20
2585.000002519093
 30
-1379.051287506078
  0
SEQEND
  5
7FA
330
59D
100
AcDbEntity
  8
OBJECT
  0
LINE
  5
59E
330
158
100
AcDbEntity
  8
OBJECT
100
AcDbLine
 10
1616.000006517408
 20
2635.000002519093
 30
-1379.051287506078
 11
1616.000006517408
 21
2585.000002519093
 31
-1379.051287506078
  0
REGION
  5
59F
330
158
100
AcDbEntity
  8
OBJECT
100
AcDbModelerGeometry
 70
     1
  1
noi gi n o          
  1
=0;& {n {m {rn {rn |
  1
9@=0;&r3(;r>++-6= {rn {l {rn {o |
  1
3*2/ {k {rn {j {o |
  1
-:9@)+r3(;r>++-6= {rn {rn {n {o {i {h |
  1
-:9@)+r3(;r>++-6= {rn {rn {rn {m {i {h |
  1
,7:33 {g {rn {rn {f {m |
  1
-:961:2:1+ {rn o o o o nqghlkokjomgigijml o o k o o o o o o o o o |
  1
):-+:'@+:2/3>+: {rn l o n g |
  1
-:9@)+r3(;r>++-6= {rn {rn {rn {j {i {h |
  1
9><: {no {rn {nn {j {rn {nm 90-(>-; ;0*=3: 0*+ |
  1
99><:r3(;r>++-6= {rn {nl {rn {f |
  1
300/ {rn {nk {nj {f |
  1
/3>1:r,*-9><: {rn njfnqjooooijnhkof mjjjqooooomjnfofkg rnlhfqojnmghjoiohfm o o n n o o o V V V V |
  1
-:9@)+r3(;r>++-6= {rn {rn {no {f {i {rn |
  1
300/ {rn {ni {nh {f |
  1
<0:;8: {ng {nf {mo {rn {mn n {nn {rn |
  1
300/ {rn {rn {mm {f |
  1
<0:;8: {ml {nh {nh {rn {mk o {nk {rn |
  1
<0/>-r3(;r>++-6= {rn {rn {rn {nj |
  1
<0:;8: {mj {mi {nj {rn {mh n {nn {rn |
  1
<0:;8: {mg {nj {mf {rn {lo n {nn {rn |
  1
:;8: {ln {lm {ll {nj {lk o |
  1
<0:;8: {lj {mm {mm {rn {li o {ni {rn |
  1
<0/>-r3(;r>++-6= {rn {rn {rn {nh |
  1
:;8: {lh {lg {lg {nh {lf o |
  1
<0/>-r3(;r>++-6= {rn {rn {rn {nf |
  1
<0:;8: {ko {kn {nf {rn {km n {nn {rn |
  1
:;8: {kl {kk {lm {nf {kj o |
  1
<0/>-r3(;r>++-6= {rn {rn {rn {mo |
  1
<0:;8: {ki {mo {kh {rn {kg n {nn {rn |
  1
:;8: {kf {ll {jo {mo {jn o |
  1
:/>-r3(;r>++-6= {rn {rn {rn {mn |
  1
):-+:' {rn {mn {jm |
  1
):-+:' {rn {mn {jl |
  1
,+->687+r<*-): {rn nkgfqjooooijnhkohm mjjjqooooomjnfofkg rnlhfqojnmghjoiohfm rn o o V V |
  1
<0/>-r3(;r>++-6= {rn {rn {rn {mm |
  1
:;8: {jk {jj {jj {mm {ji o |
  1
:/>-r3(;r>++-6= {rn {rn {rn {mk |
  1
):-+:' {rn {mk {jh |
  1
:336/,:r<*-): {rn njnoqjooooijnhkoil mikoqooooomjnfoflf rnlhfqojnmghjoiohfm o o rn nk o o n V V |
  1
<0/>-r3(;r>++-6= {rn {rn {rn {mi |
  1
<0:;8: {jg {jf {mi {rn {io n {nn {rn |
  1
:;8: {in {im {kk {mi {il o |
  1
:/>-r3(;r>++-6= {rn {rn {rn {mh |
  1
):-+:' {rn {mh {ik |
  1
:336/,:r<*-): {rn njfnqjooooijnhkof mjjfqooooomjnfofkg rnlhfqojnmghjoiohfm o o rn mqgmgkmhnmkhkinion rmqgmgkmhnmkhkinion o n V V |
  1
<0/>-r3(;r>++-6= {rn {rn {rn {mf |
  1
<0:;8: {ij {mf {jf {rn {ii n {nn {rn |
  1
:;8: {ih {jo {ig {mf {if o |
  1
:/>-r3(;r>++-6= {rn {rn {rn {lo |
  1
):-+:' {rn {kg {ho |
  1
:336/,:r<*-): {rn nkgfqjooooijnhkohm mjjfqooooomjnfofkg rnlhfqojnmghjoiohfm o o rn rmqgmgkmhnmkhkingfg rmqgmgkmhnmkhkingfg o n V V |
  1
/061+ {rn njfnqjooooijnhkof mjjjqooooomjnfofkg rnlhfqojnmghjoiohfm |
  1
/061+ {rn nkgfqjooooijnhkohm mjjjqooooomjnfofkg rnlhfqojnmghjoiohfm |
  1
:/>-r3(;r>++-6= {rn {rn {rn {li |
  1
):-+:' {rn {li {hn |
  1
:336/,:r<*-): {rn njhoqjooooijnhkoff mjgoqooooomjnfofkg rnlhfqojnmghjoiohfm o o rn rnk o o n V V |
  1
/061+ {rn njmkqjooooijnhkoil mikoqooooomjnfoflf rnlhfqojnmghjoiohfm |
  1
<0/>-r3(;r>++-6= {rn {rn {rn {kn |
  1
<0:;8: {hm {kh {kn {rn {hl n {nn {rn |
  1
:;8: {hk {hj {im {kn {hi o |
  1
:/>-r3(;r>++-6= {rn {rn {rn {km |
  1
):-+:' {rn {km {hh |
  1
,+->687+r<*-): {rn njfjqjooooijnhkof mjjfqooooomjnfofkg rnlhfqojnmghjoiohfm mqihkfgkknifhfmnmh:ronk rn o V V |
  1
/061+ {rn njfjqjooooijnhkof mjjfqooooomjnfofkg rnlhfqojnmghjoiohfm |
  1
<0/>-r3(;r>++-6= {rn {rn {rn {kh |
  1
:;8: {hg {ig {hf {kh {go o |
  1
:/>-r3(;r>++-6= {rn {rn {rn {kg |
  1
):-+:' {rn {ii {gn |
  1
,+->687+r<*-): {rn nkgjqjooooijnhkohm miinqooooomjnfofkg rnlhfqojnmghjoiohfm o n o V V |
  1
/061+ {rn nkgjqjooooijnhkohm mjjfqooooomjnfofkg rnlhfqojnmghjoiohfm |
  1
/061+ {rn njjiqjooooijnhkoff mjgoqooooomjnfofkg rnlhfqojnmghjoiohfm |
  1
<0/>-r3(;r>++-6= {rn {rn {rn {jf |
  1
:;8: {gm {hf {hj {jf {gl o |
  1
:/>-r3(;r>++-6= {rn {rn {rn {io |
  1
):-+:' {rn {io {gk |
  1
:336/,:r<*-): {rn njfnqjooooijnhkoil miinqooooomjnfoflf rnlhfqojnmghjoiohfm o o rn mqgmgkmhnmkhkingfg mqgmgkmhnmkhkingfg o n V V |
  1
/061+ {rn njfjqjooooijnhkoil miinqooooomjnfoflf rnlhfqojnmghjoiohfm |
  1
:/>-r3(;r>++-6= {rn {rn {rn {ii |
  1
):-+:' {rn {hl {gj |
  1
:336/,:r<*-): {rn nkgfqjooooijnhkohm miinqooooomjnfofkg rnlhfqojnmghjoiohfm o o rn rmqgmgkmhnmkhkingkn mqgmgkmhnmkhkingkn o n V V |
  1
/061+ {rn nkgjqjooooijnhkohm miinqooooomjnfofkg rnlhfqojnmghjoiohfm |
  1
:/>-r3(;r>++-6= {rn {rn {rn {hl |
  1
,+->687+r<*-): {rn njfnqjooooijnhkoil miijqooooomjnfoflf rnlhfqojnmghjoiohfm n rkqkjglohlinilmokoj:ronj o V V |
  1
/061+ {rn njfnqjooooijnhkoil miijqooooomjnfoflf rnlhfqojnmghjoiohfm |
  1
/061+ {rn nkgfqjooooijnhkohm miijqooooomjnfofkg rnlhfqojnmghjoiohfm |
  0
POLYLINE
  5
5A0
330
158
100
AcDbEntity
  8
OBJECT
100
AcDb2dPolyline
 66
     1
 10
0.0
 20
0.0
 30
-1379.051287506078
  0
VERTEX
  5
7FB
330
5A0
100
AcDbEntity
  8
OBJECT
100
AcDbVertex
100
AcDb2dVertex
 10
1589.000006517408
 20
2665.000002519093
 30
-1379.051287506078
  0
VERTEX
  5
7FC
330
5A0
100
AcDbEntity
  8
OBJECT
100
AcDbVertex
100
AcDb2dVertex
 10
1589.000006517408
 20
3555.000002519094
 30
-1379.051287506078
  0
SEQEND
  5
7FD
330
5A0
100
AcDbEntity
  8
OBJECT
  0
POLYLINE
  5
5A1
330
158
100
AcDbEntity
  8
OBJECT
100
AcDb2dPolyline
 66
     1
 10
0.0
 20
0.0
 30
-1379.051287506078
 70
     1
  0
VERTEX
  5
7FE
330
5A1
100
AcDbEntity
  8
OBJECT
100
AcDbVertex
100
AcDb2dVertex
 10
1557.2963889249
 20
3551.500002519093
 30
-1379.051287506078
  0
VERTEX
  5
7FF
330
5A1
100
AcDbEntity
  8
OBJECT
100
AcDbVertex
100
AcDb2dVertex
 10
1557.2963889249
 20
2668.500002519095
 30
-1379.051287506078
  0
VERTEX
  5
800
330
5A1
100
AcDbEntity
  8
OBJECT
100
AcDbVertex
100
AcDb2dVertex
 10
1523.2963889249
 20
2668.500002519095
 30
-1379.051287506078
  0
VERTEX
  5
801
330
5A1
100
AcDbEntity
  8
OBJECT
100
AcDbVertex
100
AcDb2dVertex
 10
1523.2963889249
 20
3551.500002519093
 30
-1379.051287506078
  0
SEQEND
  5
802
330
5A1
100
AcDbEntity
  8
OBJECT
  0
POLYLINE
  5
5A2
330
158
100
AcDbEntity
  8
OBJECT
100
AcDb2dPolyline
 66
     1
 10
0.0
 20
0.0
 30
-1379.051287506078
  0
VERTEX
  5
803
330
5A2
100
AcDbEntity
  8
OBJECT
100
AcDbVertex
100
AcDb2dVertex
 10
1614.000006517408
 20
2301.000002519093
 30
-1379.051287506078
  0
VERTEX
  5
804
330
5A2
100
AcDbEntity
  8
OBJECT
100
AcDbVertex
100
AcDb2dVertex
 10
1616.000006517408
 20
2301.000002519093
 30
-1379.051287506078
 42
-0.4142135623730952
  0
VERTEX
  5
805
330
5A2
100
AcDbEntity
  8
OBJECT
100
AcDbVertex
100
AcDb2dVertex
 10
1624.000006517408
 20
2293.000002519093
 30
-1379.051287506078
  0
VERTEX
  5
806
330
5A2
100
AcDbEntity
  8
OBJECT
100
AcDbVertex
100
AcDb2dVertex
 10
1624.000006517408
 20
2259.000002519092
 30
-1379.051287506078
 42
-0.4142135623730952
  0
VERTEX
  5
807
330
5A2
100
AcDbEntity
  8
OBJECT
100
AcDbVertex
100
AcDb2dVertex
 10
1616.000006517408
 20
2251.000002519093
 30
-1379.051287506078
  0
VERTEX
  5
808
330
5A2
100
AcDbEntity
  8
OBJECT
100
AcDbVertex
100
AcDb2dVertex
 10
1614.000006517408
 20
2251.000002519093
 30
-1379.051287506078
  0
SEQEND
  5
809
330
5A2
100
AcDbEntity
  8
OBJECT
  0
LINE
  5
5A3
330
158
100
AcDbEntity
  8
OBJECT
100
AcDbLine
 10
1616.000006517408
 20
2301.000002519093
 30
-1379.051287506078
 11
1616.000006517408
 21
2251.000002519093
 31
-1379.051287506078
  0
POLYLINE
  5
5A4
330
158
100
AcDbEntity
  8
OBJECT
100
AcDb2dPolyline
 66
     1
 10
0.0
 20
0.0
 30
-1379.051287506078
  0
VERTEX
  5
80A
330
5A4
100
AcDbEntity
  8
OBJECT
100
AcDbVertex
100
AcDb2dVertex
 10
1614.000006517408
 20
1967.000002519093
 30
-1379.051287506078
  0
VERTEX
  5
80B
330
5A4
100
AcDbEntity
  8
OBJECT
100
AcDbVertex
100
AcDb2dVertex
 10
1616.000006517408
 20
1967.000002519093
 30
-1379.051287506078
 42
-0.4142135623730952
  0
VERTEX
  5
80C
330
5A4
100
AcDbEntity
  8
OBJECT
100
AcDbVertex
100
AcDb2dVertex
 10
1624.000006517408
 20
1959.000002519093
 30
-1379.051287506078
  0
VERTEX
  5
80D
330
5A4
100
AcDbEntity
  8
OBJECT
100
AcDbVertex
100
AcDb2dVertex
 10
1624.000006517408
 20
1925.000002519093
 30
-1379.051287506078
 42
-0.4142135623730952
  0
VERTEX
  5
80E
330
5A4
100
AcDbEntity
  8
OBJECT
100
AcDbVertex
100
AcDb2dVertex
 10
1616.000006517408
 20
1917.000002519093
 30
-1379.051287506078
  0
VERTEX
  5
80F
330
5A4
100
AcDbEntity
  8
OBJECT
100
AcDbVertex
100
AcDb2dVertex
 10
1614.000006517408
 20
1917.000002519093
 30
-1379.051287506078
  0
SEQEND
  5
810
330
5A4
100
AcDbEntity
  8
OBJECT
  0
LINE
  5
5A5
330
158
100
AcDbEntity
  8
OBJECT
100
AcDbLine
 10
1616.000006517408
 20
1967.000002519093
 30
-1379.051287506078
 11
1616.000006517408
 21
1917.000002519093
 31
-1379.051287506078
  0
POLYLINE
  5
5A6
330
158
100
AcDbEntity
  8
OBJECT
100
AcDb2dPolyline
 66
     1
 10
0.0
 20
0.0
 30
-1379.051287506078
  0
VERTEX
  5
811
330
5A6
100
AcDbEntity
  8
OBJECT
100
AcDbVertex
100
AcDb2dVertex
 10
1563.910767202562
 20
1665.000002519093
 30
-1379.051287506078
 42
0.2482675702532814
  0
VERTEX
  5
812
330
5A6
100
AcDbEntity
  8
OBJECT
100
AcDbVertex
100
AcDb2dVertex
 10
1557.2963889249
 20
1668.500002519095
 30
-1379.051287506078
  0
VERTEX
  5
813
330
5A6
100
AcDbEntity
  8
OBJECT
100
AcDbVertex
100
AcDb2dVertex
 10
1523.2963889249
 20
1668.500002519095
 30
-1379.051287506078
 42
0.2482675702532814
  0
VERTEX
  5
814
330
5A6
100
AcDbEntity
  8
OBJECT
100
AcDbVertex
100
AcDb2dVertex
 10
1516.682010647238
 20
1665.000002519093
 30
-1379.051287506078
  0
SEQEND
  5
815
330
5A6
100
AcDbEntity
  8
OBJECT
  0
POLYLINE
  5
5A7
330
158
100
AcDbEntity
  8
OBJECT
100
AcDb2dPolyline
 66
     1
 10
0.0
 20
0.0
 30
-1379.051287506078
  0
VERTEX
  5
816
330
5A7
100
AcDbEntity
  8
OBJECT
100
AcDbVertex
100
AcDb2dVertex
 10
1614.000006517408
 20
1635.000002519093
 30
-1379.051287506078
  0
VERTEX
  5
817
330
5A7
100
AcDbEntity
  8
OBJECT
100
AcDbVertex
100
AcDb2dVertex
 10
1616.000006517408
 20
1635.000002519093
 30
-1379.051287506078
 42
-0.4142135623730952
  0
VERTEX
  5
818
330
5A7
100
AcDbEntity
  8
OBJECT
100
AcDbVertex
100
AcDb2dVertex
 10
1624.000006517408
 20
1627.000002519093
 30
-1379.051287506078
  0
VERTEX
  5
819
330
5A7
100
AcDbEntity
  8
OBJECT
100
AcDbVertex
100
AcDb2dVertex
 10
1624.000006517408
 20
1593.000002519093
 30
-1379.051287506078
 42
-0.4142135623730952
  0
VERTEX
  5
81A
330
5A7
100
AcDbEntity
  8
OBJECT
100
AcDbVertex
100
AcDb2dVertex
 10
1616.000006517408
 20
1585.000002519093
 30
-1379.051287506078
  0
VERTEX
  5
81B
330
5A7
100
AcDbEntity
  8
OBJECT
100
AcDbVertex
100
AcDb2dVertex
 10
1614.000006517408
 20
1585.000002519093
 30
-1379.051287506078
  0
SEQEND
  5
81C
330
5A7
100
AcDbEntity
  8
OBJECT
  0
LINE
  5
5A8
330
158
100
AcDbEntity
  8
OBJECT
100
AcDbLine
 10
1616.000006517408
 20
1635.000002519093
 30
-1379.051287506078
 11
1616.000006517408
 21
1585.000002519093
 31
-1379.051287506078
  0
REGION
  5
5A9
330
158
100
AcDbEntity
  8
OBJECT
100
AcDbModelerGeometry
 70
     1
  1
noi gi n o          
  1
=0;& {n {m {rn {rn |
  1
9@=0;&r3(;r>++-6= {rn {l {rn {o |
  1
3*2/ {k {rn {j {o |
  1
-:9@)+r3(;r>++-6= {rn {rn {n {o {i {h |
  1
-:9@)+r3(;r>++-6= {rn {rn {rn {m {i {h |
  1
,7:33 {g {rn {rn {f {m |
  1
-:961:2:1+ {rn o o o o nqghlkokjomgigijml o o k o o o o o o o o o |
  1
):-+:'@+:2/3>+: {rn l o n g |
  1
-:9@)+r3(;r>++-6= {rn {rn {rn {j {i {h |
  1
9><: {no {rn {nn {j {rn {nm 90-(>-; ;0*=3: 0*+ |
  1
99><:r3(;r>++-6= {rn {nl {rn {f |
  1
300/ {rn {nk {nj {f |
  1
/3>1:r,*-9><: {rn njfnqjooooijnhkof njjjqooooomjnfoflf rnlhfqojnmghjoiohfm o o n n o o o V V V V |
  1
-:9@)+r3(;r>++-6= {rn {rn {no {f {i {rn |
  1
300/ {rn {ni {nh {f |
  1
<0:;8: {ng {nf {mo {rn {mn n {nn {rn |
  1
300/ {rn {rn {mm {f |
  1
<0:;8: {ml {nh {nh {rn {mk o {nk {rn |
  1
<0/>-r3(;r>++-6= {rn {rn {rn {nj |
  1
<0:;8: {mj {mi {nj {rn {mh n {nn {rn |
  1
<0:;8: {mg {nj {mf {rn {lo n {nn {rn |
  1
:;8: {ln {lm {ll {nj {lk o |
  1
<0:;8: {lj {mm {mm {rn {li o {ni {rn |
  1
<0/>-r3(;r>++-6= {rn {rn {rn {nh |
  1
:;8: {lh {lg {lg {nh {lf o |
  1
<0/>-r3(;r>++-6= {rn {rn {rn {nf |
  1
<0:;8: {ko {kn {nf {rn {km n {nn {rn |
  1
:;8: {kl {kk {lm {nf {kj o |
  1
<0/>-r3(;r>++-6= {rn {rn {rn {mo |
  1
<0:;8: {ki {mo {kh {rn {kg n {nn {rn |
  1
:;8: {kf {ll {jo {mo {jn o |
  1
:/>-r3(;r>++-6= {rn {rn {rn {mn |
  1
):-+:' {rn {mn {jm |
  1
):-+:' {rn {mn {jl |
  1
,+->687+r<*-): {rn nkgfqjooooijnhkohm njjjqooooomjnfoflf rnlhfqojnmghjoiohfm rn o o V V |
  1
<0/>-r3(;r>++-6= {rn {rn {rn {mm |
  1
:;8: {jk {jj {jj {mm {ji o |
  1
:/>-r3(;r>++-6= {rn {rn {rn {mk |
  1
):-+:' {rn {mk {jh |
  1
:336/,:r<*-): {rn njnoqjooooijnhkoil nikoqooooomjnfofl rnlhfqojnmghjoiohfm o o rn nk o o n V V |
  1
<0/>-r3(;r>++-6= {rn {rn {rn {mi |
  1
<0:;8: {jg {jf {mi {rn {io n {nn {rn |
  1
:;8: {in {im {kk {mi {il o |
  1
:/>-r3(;r>++-6= {rn {rn {rn {mh |
  1
):-+:' {rn {mh {ik |
  1
:336/,:r<*-): {rn njfnqjooooijnhkof njjfqooooomjnfoflf rnlhfqojnmghjoiohfm o o rn mqgmgkmhnmkhkinion rmqgmgkmhnmkhkinion o n V V |
  1
<0/>-r3(;r>++-6= {rn {rn {rn {mf |
  1
<0:;8: {ij {mf {jf {rn {ii n {nn {rn |
  1
:;8: {ih {jo {ig {mf {if o |
  1
:/>-r3(;r>++-6= {rn {rn {rn {lo |
  1
):-+:' {rn {kg {ho |
  1
:336/,:r<*-): {rn nkgfqjooooijnhkohm njjfqooooomjnfoflf rnlhfqojnmghjoiohfm o o rn rmqgmgkmhnmkhkingfg rmqgmgkmhnmkhkingfg o n V V |
  1
/061+ {rn njfnqjooooijnhkof njjjqooooomjnfoflf rnlhfqojnmghjoiohfm |
  1
/061+ {rn nkgfqjooooijnhkohm njjjqooooomjnfoflf rnlhfqojnmghjoiohfm |
  1
:/>-r3(;r>++-6= {rn {rn {rn {li |
  1
):-+:' {rn {li {hn |
  1
:336/,:r<*-): {rn njhoqjooooijnhkoff njgoqooooomjnfoflf rnlhfqojnmghjoiohfm o o rn rnk o o n V V |
  1
/061+ {rn njmkqjooooijnhkoil nikoqooooomjnfofl rnlhfqojnmghjoiohfm |
  1
<0/>-r3(;r>++-6= {rn {rn {rn {kn |
  1
<0:;8: {hm {kh {kn {rn {hl n {nn {rn |
  1
:;8: {hk {hj {im {kn {hi o |
  1
:/>-r3(;r>++-6= {rn {rn {rn {km |
  1
):-+:' {rn {km {hh |
  1
,+->687+r<*-): {rn njfjqjooooijnhkof njjfqooooomjnfoflf rnlhfqojnmghjoiohfm mqihkfgkknifhfmnmh:ronk rn o V V |
  1
/061+ {rn njfjqjooooijnhkof njjfqooooomjnfoflf rnlhfqojnmghjoiohfm |
  1
<0/>-r3(;r>++-6= {rn {rn {rn {kh |
  1
:;8: {hg {ig {hf {kh {go o |
  1
:/>-r3(;r>++-6= {rn {rn {rn {kg |
  1
):-+:' {rn {ii {gn |
  1
,+->687+r<*-): {rn nkgjqjooooijnhkohm niinqooooomjnfoflf rnlhfqojnmghjoiohfm o n o V V |
  1
/061+ {rn nkgjqjooooijnhkohm njjfqooooomjnfoflf rnlhfqojnmghjoiohfm |
  1
/061+ {rn njjiqjooooijnhkoff njgoqooooomjnfoflf rnlhfqojnmghjoiohfm |
  1
<0/>-r3(;r>++-6= {rn {rn {rn {jf |
  1
:;8: {gm {hf {hj {jf {gl o |
  1
:/>-r3(;r>++-6= {rn {rn {rn {io |
  1
):-+:' {rn {io {gk |
  1
:336/,:r<*-): {rn njfnqjooooijnhkoil niinqooooomjnfofl rnlhfqojnmghjoiohfm o o rn mqgmgkmhnmkhkingfg mqgmgkmhnmkhkingfg o n V V |
  1
/061+ {rn njfjqjooooijnhkoil niinqooooomjnfofl rnlhfqojnmghjoiohfm |
  1
:/>-r3(;r>++-6= {rn {rn {rn {ii |
  1
):-+:' {rn {hl {gj |
  1
:336/,:r<*-): {rn nkgfqjooooijnhkohm niinqooooomjnfoflf rnlhfqojnmghjoiohfm o o rn rmqgmgkmhnmkhkingkn mqgmgkmhnmkhkingkn o n V V |
  1
/061+ {rn nkgjqjooooijnhkohm niinqooooomjnfoflf rnlhfqojnmghjoiohfm |
  1
:/>-r3(;r>++-6= {rn {rn {rn {hl |
  1
,+->687+r<*-): {rn njfnqjooooijnhkoil niijqooooomjnfofl rnlhfqojnmghjoiohfm n rkqkjglohlinilmokoj:ronj o V V |
  1
/061+ {rn njfnqjooooijnhkoil niijqooooomjnfofl rnlhfqojnmghjoiohfm |
  1
/061+ {rn nkgfqjooooijnhkohm niijqooooomjnfoflf rnlhfqojnmghjoiohfm |
  0
POLYLINE
  5
5AA
330
158
100
AcDbEntity
  8
OBJECT
100
AcDb2dPolyline
 66
     1
 10
0.0
 20
0.0
 30
-1379.051287506078
  0
VERTEX
  5
81D
330
5AA
100
AcDbEntity
  8
OBJECT
100
AcDbVertex
100
AcDb2dVertex
 10
1589.000006517408
 20
3665.000002519094
 30
-1379.051287506078
  0
VERTEX
  5
81E
330
5AA
100
AcDbEntity
  8
OBJECT
100
AcDbVertex
100
AcDb2dVertex
 10
1589.000006517408
 20
3721.000002519093
 30
-1379.051287506078
  0
VERTEX
  5
81F
330
5AA
100
AcDbEntity
  8
OBJECT
100
AcDbVertex
100
AcDb2dVertex
 10
1614.000006517408
 20
3721.000002519093
 30
-1379.051287506078
  0
VERTEX
  5
820
330
5AA
100
AcDbEntity
  8
OBJECT
100
AcDbVertex
100
AcDb2dVertex
 10
1614.000006517408
 20
1503.000002519093
 30
-1379.051287506078
  0
VERTEX
  5
821
330
5AA
100
AcDbEntity
  8
OBJECT
100
AcDbVertex
100
AcDb2dVertex
 10
1589.000006517408
 20
1503.000002519093
 30
-1379.051287506078
  0
VERTEX
  5
822
330
5AA
100
AcDbEntity
  8
OBJECT
100
AcDbVertex
100
AcDb2dVertex
 10
1589.000006517408
 20
1555.000002519093
 30
-1379.051287506078
  0
SEQEND
  5
823
330
5AA
100
AcDbEntity
  8
OBJECT
  0
POLYLINE
  5
5AB
330
158
100
AcDbEntity
  8
OBJECT
100
AcDb2dPolyline
 66
     1
 10
0.0
 20
0.0
 30
-1379.051287506078
 70
     1
  0
VERTEX
  5
824
330
5AB
100
AcDbEntity
  8
OBJECT
100
AcDbVertex
100
AcDb2dVertex
 10
1557.2963889249
 20
2551.500002519094
 30
-1379.051287506078
  0
VERTEX
  5
825
330
5AB
100
AcDbEntity
  8
OBJECT
100
AcDbVertex
100
AcDb2dVertex
 10
1557.2963889249
 20
1668.500002519095
 30
-1379.051287506078
  0
VERTEX
  5
826
330
5AB
100
AcDbEntity
  8
OBJECT
100
AcDbVertex
100
AcDb2dVertex
 10
1523.2963889249
 20
1668.500002519095
 30
-1379.051287506078
  0
VERTEX
  5
827
330
5AB
100
AcDbEntity
  8
OBJECT
100
AcDbVertex
100
AcDb2dVertex
 10
1523.2963889249
 20
2551.500002519094
 30
-1379.051287506078
  0
SEQEND
  5
828
330
5AB
100
AcDbEntity
  8
OBJECT
  0
POLYLINE
  5
5AC
330
158
100
AcDbEntity
  8
OBJECT
100
AcDb2dPolyline
 66
     1
 10
0.0
 20
0.0
 30
-1379.051287506078
  0
VERTEX
  5
829
330
5AC
100
AcDbEntity
  8
OBJECT
100
AcDbVertex
100
AcDb2dVertex
 10
1589.000006517408
 20
1665.000002519093
 30
-1379.051287506078
  0
VERTEX
  5
82A
330
5AC
100
AcDbEntity
  8
OBJECT
100
AcDbVertex
100
AcDb2dVertex
 10
1589.000006517408
 20
2555.000002519093
 30
-1379.051287506078
  0
SEQEND
  5
82B
330
5AC
100
AcDbEntity
  8
OBJECT
  0
POLYLINE
  5
5AD
330
158
100
AcDbEntity
  8
OBJECT
100
AcDb2dPolyline
 66
     1
 10
0.0
 20
0.0
 30
-1379.051287506078
 70
     1
  0
VERTEX
  5
82C
330
5AD
100
AcDbEntity
  8
OBJECT
100
AcDbVertex
100
AcDb2dVertex
 10
1624.000006517408
 20
1627.000002519093
 30
-1379.051287506078
  0
VERTEX
  5
82D
330
5AD
100
AcDbEntity
  8
OBJECT
100
AcDbVertex
100
AcDb2dVertex
 10
1834.000006517408
 20
1627.000002519093
 30
-1379.051287506078
  0
VERTEX
  5
82E
330
5AD
100
AcDbEntity
  8
OBJECT
100
AcDbVertex
100
AcDb2dVertex
 10
1834.000006517408
 20
1593.000002519093
 30
-1379.051287506078
  0
VERTEX
  5
82F
330
5AD
100
AcDbEntity
  8
OBJECT
100
AcDbVertex
100
AcDb2dVertex
 10
1624.000006517408
 20
1593.000002519093
 30
-1379.051287506078
  0
SEQEND
  5
830
330
5AD
100
AcDbEntity
  8
OBJECT
  0
POLYLINE
  5
5AE
330
158
100
AcDbEntity
  8
OBJECT
100
AcDb2dPolyline
 66
     1
 10
0.0
 20
0.0
 30
-1379.051287506078
 70
     1
  0
VERTEX
  5
831
330
5AE
100
AcDbEntity
  8
OBJECT
100
AcDbVertex
100
AcDb2dVertex
 10
1624.000006517408
 20
1959.000002519093
 30
-1379.051287506078
  0
VERTEX
  5
832
330
5AE
100
AcDbEntity
  8
OBJECT
100
AcDbVertex
100
AcDb2dVertex
 10
1834.000006517408
 20
1959.000002519093
 30
-1379.051287506078
  0
VERTEX
  5
833
330
5AE
100
AcDbEntity
  8
OBJECT
100
AcDbVertex
100
AcDb2dVertex
 10
1834.000006517408
 20
1925.000002519093
 30
-1379.051287506078
  0
VERTEX
  5
834
330
5AE
100
AcDbEntity
  8
OBJECT
100
AcDbVertex
100
AcDb2dVertex
 10
1624.000006517408
 20
1925.000002519093
 30
-1379.051287506078
  0
SEQEND
  5
835
330
5AE
100
AcDbEntity
  8
OBJECT
  0
POLYLINE
  5
5AF
330
158
100
AcDbEntity
  8
OBJECT
100
AcDb2dPolyline
 66
     1
 10
0.0
 20
0.0
 30
-1379.051287506078
 70
     1
  0
VERTEX
  5
836
330
5AF
100
AcDbEntity
  8
OBJECT
100
AcDbVertex
100
AcDb2dVertex
 10
1624.000006517408
 20
2293.000002519093
 30
-1379.051287506078
  0
VERTEX
  5
837
330
5AF
100
AcDbEntity
  8
OBJECT
100
AcDbVertex
100
AcDb2dVertex
 10
1834.000006517408
 20
2293.000002519093
 30
-1379.051287506078
  0
VERTEX
  5
838
330
5AF
100
AcDbEntity
  8
OBJECT
100
AcDbVertex
100
AcDb2dVertex
 10
1834.000006517408
 20
2259.000002519092
 30
-1379.051287506078
  0
VERTEX
  5
839
330
5AF
100
AcDbEntity
  8
OBJECT
100
AcDbVertex
100
AcDb2dVertex
 10
1624.000006517408
 20
2259.000002519092
 30
-1379.051287506078
  0
SEQEND
  5
83A
330
5AF
100
AcDbEntity
  8
OBJECT
  0
POLYLINE
  5
5B0
330
158
100
AcDbEntity
  8
OBJECT
100
AcDb2dPolyline
 66
     1
 10
0.0
 20
0.0
 30
-1379.051287506078
 70
     1
  0
VERTEX
  5
83B
330
5B0
100
AcDbEntity
  8
OBJECT
100
AcDbVertex
100
AcDb2dVertex
 10
1624.000006517408
 20
2627.000002519093
 30
-1379.051287506078
  0
VERTEX
  5
83C
330
5B0
100
AcDbEntity
  8
OBJECT
100
AcDbVertex
100
AcDb2dVertex
 10
1834.000006517408
 20
2627.000002519093
 30
-1379.051287506078
  0
VERTEX
  5
83D
330
5B0
100
AcDbEntity
  8
OBJECT
100
AcDbVertex
100
AcDb2dVertex
 10
1834.000006517408
 20
2593.000002519093
 30
-1379.051287506078
  0
VERTEX
  5
83E
330
5B0
100
AcDbEntity
  8
OBJECT
100
AcDbVertex
100
AcDb2dVertex
 10
1624.000006517408
 20
2593.000002519093
 30
-1379.051287506078
  0
SEQEND
  5
83F
330
5B0
100
AcDbEntity
  8
OBJECT
  0
POLYLINE
  5
5B1
330
158
100
AcDbEntity
  8
OBJECT
100
AcDb2dPolyline
 66
     1
 10
0.0
 20
0.0
 30
-1379.051287506078
 70
     1
  0
VERTEX
  5
840
330
5B1
100
AcDbEntity
  8
OBJECT
100
AcDbVertex
100
AcDb2dVertex
 10
1624.000006517408
 20
2961.000002519093
 30
-1379.051287506078
  0
VERTEX
  5
841
330
5B1
100
AcDbEntity
  8
OBJECT
100
AcDbVertex
100
AcDb2dVertex
 10
1834.000006517408
 20
2961.000002519093
 30
-1379.051287506078
  0
VERTEX
  5
842
330
5B1
100
AcDbEntity
  8
OBJECT
100
AcDbVertex
100
AcDb2dVertex
 10
1834.000006517408
 20
2927.000002519093
 30
-1379.051287506078
  0
VERTEX
  5
843
330
5B1
100
AcDbEntity
  8
OBJECT
100
AcDbVertex
100
AcDb2dVertex
 10
1624.000006517408
 20
2927.000002519093
 30
-1379.051287506078
  0
SEQEND
  5
844
330
5B1
100
AcDbEntity
  8
OBJECT
  0
POLYLINE
  5
5B2
330
158
100
AcDbEntity
  8
OBJECT
100
AcDb2dPolyline
 66
     1
 10
0.0
 20
0.0
 30
-1379.051287506078
 70
     1
  0
VERTEX
  5
845
330
5B2
100
AcDbEntity
  8
OBJECT
100
AcDbVertex
100
AcDb2dVertex
 10
1624.000006517408
 20
3295.000002519093
 30
-1379.051287506078
  0
VERTEX
  5
846
330
5B2
100
AcDbEntity
  8
OBJECT
100
AcDbVertex
100
AcDb2dVertex
 10
1834.000006517408
 20
3295.000002519093
 30
-1379.051287506078
  0
VERTEX
  5
847
330
5B2
100
AcDbEntity
  8
OBJECT
100
AcDbVertex
100
AcDb2dVertex
 10
1834.000006517408
 20
3261.000002519093
 30
-1379.051287506078
  0
VERTEX
  5
848
330
5B2
100
AcDbEntity
  8
OBJECT
100
AcDbVertex
100
AcDb2dVertex
 10
1624.000006517408
 20
3261.000002519093
 30
-1379.051287506078
  0
SEQEND
  5
849
330
5B2
100
AcDbEntity
  8
OBJECT
  0
POLYLINE
  5
5B3
330
158
100
AcDbEntity
  8
OBJECT
100
AcDb2dPolyline
 66
     1
 10
0.0
 20
0.0
 30
-1379.051287506078
 70
     1
  0
VERTEX
  5
84A
330
5B3
100
AcDbEntity
  8
OBJECT
100
AcDbVertex
100
AcDb2dVertex
 10
1624.000006517408
 20
3627.000002519094
 30
-1379.051287506078
  0
VERTEX
  5
84B
330
5B3
100
AcDbEntity
  8
OBJECT
100
AcDbVertex
100
AcDb2dVertex
 10
1834.000006517408
 20
3627.000002519094
 30
-1379.051287506078
  0
VERTEX
  5
84C
330
5B3
100
AcDbEntity
  8
OBJECT
100
AcDbVertex
100
AcDb2dVertex
 10
1834.000006517408
 20
3593.000002519094
 30
-1379.051287506078
  0
VERTEX
  5
84D
330
5B3
100
AcDbEntity
  8
OBJECT
100
AcDbVertex
100
AcDb2dVertex
 10
1624.000006517408
 20
3593.000002519094
 30
-1379.051287506078
  0
SEQEND
  5
84E
330
5B3
100
AcDbEntity
  8
OBJECT
  0
ENDBLK
  5
15A
330
158
100
AcDbEntity
  8
0
100
AcDbBlockEnd
  0
BLOCK
  5
5E8
330
5C3
100
AcDbEntity
  8
0
100
AcDbBlockBegin
  2
*U1
 70
     1
 10
0.0
 20
0.0
 30
0.0
  3
*U1
  1

  0
SOLID
  5
5C4
330
5C3
100
AcDbEntity
  8
HATCH
  6
CONTINUOUS
 62
     2
100
AcDbTrace
 10
1834.000006517408
 20
1627.000002519092
 30
0.0
 11
1624.000006517408
 21
1593.000002519092
 31
0.0
 12
1834.000006517408
 22
1593.000002519093
 32
0.0
 13
1834.000006517408
 23
1593.000002519093
 33
0.0
210
0.0
220
0.0
230
1.0
  0
SOLID
  5
5C5
330
5C3
100
AcDbEntity
  8
HATCH
  6
CONTINUOUS
 62
     2
100
AcDbTrace
 10
1951.000006517408
 20
1627.000002519093
 30
0.0
 11
1951.000006517408
 21
1593.000002519093
 31
0.0
 12
2161.000006517406
 22
1593.000002519093
 32
0.0
 13
2161.000006517406
 23
1593.000002519093
 33
0.0
210
0.0
220
0.0
230
1.0
  0
SOLID
  5
5C6
330
5C3
100
AcDbEntity
  8
HATCH
  6
CONTINUOUS
 62
     2
100
AcDbTrace
 10
2161.000006517406
 20
1627.000002519093
 30
0.0
 11
1951.000006517408
 21
1627.000002519093
 31
0.0
 12
2161.000006517406
 22
1593.000002519093
 32
0.0
 13
2161.000006517406
 23
1593.000002519093
 33
0.0
210
0.0
220
0.0
230
1.0
  0
SOLID
  5
5C7
330
5C3
100
AcDbEntity
  8
HATCH
  6
CONTINUOUS
 62
     2
100
AcDbTrace
 10
1624.000006517408
 20
1627.000002519093
 30
0.0
 11
1624.000006517408
 21
1593.000002519092
 31
0.0
 12
1834.000006517408
 22
1627.000002519092
 32
0.0
 13
1834.000006517408
 23
1627.000002519092
 33
0.0
  0
SOLID
  5
5C8
330
5C3
100
AcDbEntity
  8
HATCH
  6
CONTINUOUS
 62
     2
100
AcDbTrace
 10
1834.000006517408
 20
1925.000002519093
 30
0.0
 11
1834.000006517408
 21
1959.000002519093
 31
0.0
 12
1624.000006517408
 22
1959.000002519093
 32
0.0
 13
1624.000006517408
 23
1959.000002519093
 33
0.0
210
0.0
220
0.0
230
1.0
  0
SOLID
  5
5C9
330
5C3
100
AcDbEntity
  8
HATCH
  6
CONTINUOUS
 62
     2
100
AcDbTrace
 10
1624.000006517408
 20
1959.000002519093
 30
0.0
 11
1624.000006517408
 21
1925.000002519093
 31
0.0
 12
1834.000006517408
 22
1925.000002519093
 32
0.0
 13
1834.000006517408
 23
1925.000002519093
 33
0.0
210
0.0
220
0.0
230
1.0
  0
SOLID
  5
5CA
330
5C3
100
AcDbEntity
  8
HATCH
  6
CONTINUOUS
 62
     2
100
AcDbTrace
 10
2161.000006517406
 20
1925.000002519093
 30
0.0
 11
2161.000006517406
 21
1959.000002519093
 31
0.0
 12
1951.000006517408
 22
1959.000002519093
 32
0.0
 13
1951.000006517408
 23
1959.000002519093
 33
0.0
210
0.0
220
0.0
230
1.0
  0
SOLID
  5
5CB
330
5C3
100
AcDbEntity
  8
HATCH
  6
CONTINUOUS
 62
     2
100
AcDbTrace
 10
1951.000006517408
 20
1959.000002519093
 30
0.0
 11
1951.000006517407
 21
1925.000002519093
 31
0.0
 12
2161.000006517406
 22
1925.000002519093
 32
0.0
 13
2161.000006517406
 23
1925.000002519093
 33
0.0
210
0.0
220
0.0
230
1.0
  0
SOLID
  5
5CC
330
5C3
100
AcDbEntity
  8
HATCH
  6
CONTINUOUS
 62
     2
100
AcDbTrace
 10
2161.000006517406
 20
2259.000002519092
 30
0.0
 11
2161.000006517406
 21
2293.000002519093
 31
0.0
 12
1951.000006517408
 22
2293.000002519093
 32
0.0
 13
1951.000006517408
 23
2293.000002519093
 33
0.0
210
0.0
220
0.0
230
1.0
  0
SOLID
  5
5CD
330
5C3
100
AcDbEntity
  8
HATCH
  6
CONTINUOUS
 62
     2
100
AcDbTrace
 10
1951.000006517408
 20
2293.000002519093
 30
0.0
 11
1951.000006517407
 21
2259.000002519092
 31
0.0
 12
2161.000006517406
 22
2259.000002519092
 32
0.0
 13
2161.000006517406
 23
2259.000002519092
 33
0.0
210
0.0
220
0.0
230
1.0
  0
SOLID
  5
5CE
330
5C3
100
AcDbEntity
  8
HATCH
  6
CONTINUOUS
 62
     2
100
AcDbTrace
 10
1834.000006517408
 20
2259.000002519092
 30
0.0
 11
1834.000006517408
 21
2293.000002519093
 31
0.0
 12
1624.000006517408
 22
2293.000002519093
 32
0.0
 13
1624.000006517408
 23
2293.000002519093
 33
0.0
210
0.0
220
0.0
230
1.0
  0
SOLID
  5
5CF
330
5C3
100
AcDbEntity
  8
HATCH
  6
CONTINUOUS
 62
     2
100
AcDbTrace
 10
1624.000006517408
 20
2293.000002519093
 30
0.0
 11
1624.000006517408
 21
2259.000002519092
 31
0.0
 12
1834.000006517408
 22
2259.000002519092
 32
0.0
 13
1834.000006517408
 23
2259.000002519092
 33
0.0
210
0.0
220
0.0
230
1.0
  0
SOLID
  5
5D0
330
5C3
100
AcDbEntity
  8
HATCH
  6
CONTINUOUS
 62
     2
100
AcDbTrace
 10
1523.2963889249
 20
1668.500002519095
 30
0.0
 11
1557.2963889249
 21
2551.500002519094
 31
0.0
 12
1523.2963889249
 22
2551.500002519094
 32
0.0
 13
1523.2963889249
 23
2551.500002519094
 33
0.0
210
0.0
220
0.0
230
1.0
  0
SOLID
  5
5D1
330
5C3
100
AcDbEntity
  8
HATCH
  6
CONTINUOUS
 62
     2
100
AcDbTrace
 10
1557.2963889249
 20
2551.500002519094
 30
0.0
 11
1523.2963889249
 21
1668.500002519095
 31
0.0
 12
1557.2963889249
 22
1668.500002519095
 32
0.0
 13
1557.2963889249
 23
1668.500002519095
 33
0.0
210
0.0
220
0.0
230
1.0
  0
SOLID
  5
5D2
330
5C3
100
AcDbEntity
  8
HATCH
  6
CONTINUOUS
 62
     2
100
AcDbTrace
 10
2261.296388924901
 20
1668.500002519095
 30
0.0
 11
2261.2963889249
 21
2551.500002519095
 31
0.0
 12
2227.296388924901
 22
2551.500002519095
 32
0.0
 13
2227.296388924901
 23
2551.500002519095
 33
0.0
210
0.0
220
0.0
230
1.0
  0
SOLID
  5
5D3
330
5C3
100
AcDbEntity
  8
HATCH
  6
CONTINUOUS
 62
     2
100
AcDbTrace
 10
2227.296388924901
 20
2551.500002519095
 30
0.0
 11
2227.296388924901
 21
1668.500002519095
 31
0.0
 12
2261.296388924901
 22
1668.500002519095
 32
0.0
 13
2261.296388924901
 23
1668.500002519095
 33
0.0
210
0.0
220
0.0
230
1.0
  0
SOLID
  5
5D4
330
5C3
100
AcDbEntity
  8
HATCH
  6
CONTINUOUS
 62
     2
100
AcDbTrace
 10
1834.000006517408
 20
2593.000002519093
 30
0.0
 11
1834.000006517408
 21
2627.000002519093
 31
0.0
 12
1624.000006517408
 22
2627.000002519093
 32
0.0
 13
1624.000006517408
 23
2627.000002519093
 33
0.0
210
0.0
220
0.0
230
1.0
  0
SOLID
  5
5D5
330
5C3
100
AcDbEntity
  8
HATCH
  6
CONTINUOUS
 62
     2
100
AcDbTrace
 10
1624.000006517408
 20
2627.000002519093
 30
0.0
 11
1624.000006517408
 21
2593.000002519093
 31
0.0
 12
1834.000006517408
 22
2593.000002519093
 32
0.0
 13
1834.000006517408
 23
2593.000002519093
 33
0.0
210
0.0
220
0.0
230
1.0
  0
SOLID
  5
5D6
330
5C3
100
AcDbEntity
  8
HATCH
  6
CONTINUOUS
 62
     2
100
AcDbTrace
 10
2161.000006517406
 20
2593.000002519093
 30
0.0
 11
2161.000006517406
 21
2627.000002519093
 31
0.0
 12
1951.000006517408
 22
2627.000002519093
 32
0.0
 13
1951.000006517408
 23
2627.000002519093
 33
0.0
210
0.0
220
0.0
230
1.0
  0
SOLID
  5
5D7
330
5C3
100
AcDbEntity
  8
HATCH
  6
CONTINUOUS
 62
     2
100
AcDbTrace
 10
1951.000006517408
 20
2627.000002519093
 30
0.0
 11
1951.000006517408
 21
2593.000002519093
 31
0.0
 12
2161.000006517406
 22
2593.000002519093
 32
0.0
 13
2161.000006517406
 23
2593.000002519093
 33
0.0
210
0.0
220
0.0
230
1.0
  0
SOLID
  5
5D8
330
5C3
100
AcDbEntity
  8
HATCH
  6
CONTINUOUS
 62
     2
100
AcDbTrace
 10
2161.000006517406
 20
2961.000002519092
 30
0.0
 11
1951.000006517408
 21
2927.000002519093
 31
0.0
 12
2161.000006517406
 22
2927.000002519093
 32
0.0
 13
2161.000006517406
 23
2927.000002519093
 33
0.0
  0
SOLID
  5
5D9
330
5C3
100
AcDbEntity
  8
HATCH
  6
CONTINUOUS
 62
     2
100
AcDbTrace
 10
1624.000006517408
 20
2927.000002519093
 30
0.0
 11
1834.000006517408
 21
2961.000002519093
 31
0.0
 12
1624.000006517408
 22
2961.000002519093
 32
0.0
 13
1624.000006517408
 23
2961.000002519093
 33
0.0
210
0.0
220
0.0
230
1.0
  0
SOLID
  5
5DA
330
5C3
100
AcDbEntity
  8
HATCH
  6
CONTINUOUS
 62
     2
100
AcDbTrace
 10
1834.000006517408
 20
2961.000002519093
 30
0.0
 11
1624.000006517408
 21
2927.000002519093
 31
0.0
 12
1834.000006517408
 22
2927.000002519092
 32
0.0
 13
1834.000006517408
 23
2927.000002519092
 33
0.0
210
0.0
220
0.0
230
1.0
  0
SOLID
  5
5DB
330
5C3
100
AcDbEntity
  8
HATCH
  6
CONTINUOUS
 62
     2
100
AcDbTrace
 10
1951.000006517408
 20
2961.000002519093
 30
0.0
 11
1951.000006517408
 21
2927.000002519093
 31
0.0
 12
2161.000006517406
 22
2961.000002519092
 32
0.0
 13
2161.000006517406
 23
2961.000002519092
 33
0.0
210
0.0
220
0.0
230
1.0
  0
SOLID
  5
5DC
330
5C3
100
AcDbEntity
  8
HATCH
  6
CONTINUOUS
 62
     2
100
AcDbTrace
 10
1834.000006517408
 20
3261.000002519093
 30
0.0
 11
1834.000006517408
 21
3295.000002519093
 31
0.0
 12
1624.000006517408
 22
3295.000002519093
 32
0.0
 13
1624.000006517408
 23
3295.000002519093
 33
0.0
210
0.0
220
0.0
230
1.0
  0
SOLID
  5
5DD
330
5C3
100
AcDbEntity
  8
HATCH
  6
CONTINUOUS
 62
     2
100
AcDbTrace
 10
1624.000006517408
 20
3295.000002519093
 30
0.0
 11
1624.000006517408
 21
3261.000002519093
 31
0.0
 12
1834.000006517408
 22
3261.000002519093
 32
0.0
 13
1834.000006517408
 23
3261.000002519093
 33
0.0
210
0.0
220
0.0
230
1.0
  0
SOLID
  5
5DE
330
5C3
100
AcDbEntity
  8
HATCH
  6
CONTINUOUS
 62
     2
100
AcDbTrace
 10
2161.000006517406
 20
3261.000002519093
 30
0.0
 11
2161.000006517406
 21
3295.000002519093
 31
0.0
 12
1951.000006517408
 22
3295.000002519093
 32
0.0
 13
1951.000006517408
 23
3295.000002519093
 33
0.0
210
0.0
220
0.0
230
1.0
  0
SOLID
  5
5DF
330
5C3
100
AcDbEntity
  8
HATCH
  6
CONTINUOUS
 62
     2
100
AcDbTrace
 10
1951.000006517408
 20
3295.000002519093
 30
0.0
 11
1951.000006517408
 21
3261.000002519093
 31
0.0
 12
2161.000006517406
 22
3261.000002519093
 32
0.0
 13
2161.000006517406
 23
3261.000002519093
 33
0.0
210
0.0
220
0.0
230
1.0
  0
SOLID
  5
5E0
330
5C3
100
AcDbEntity
  8
HATCH
  6
CONTINUOUS
 62
     2
100
AcDbTrace
 10
1557.2963889249
 20
3551.500002519093
 30
0.0
 11
1523.2963889249
 21
2668.500002519095
 31
0.0
 12
1557.2963889249
 22
2668.500002519095
 32
0.0
 13
1557.2963889249
 23
2668.500002519095
 33
0.0
210
0.0
220
0.0
230
1.0
  0
SOLID
  5
5E1
330
5C3
100
AcDbEntity
  8
HATCH
  6
CONTINUOUS
 62
     2
100
AcDbTrace
 10
2261.296388924902
 20
2668.500002519095
 30
0.0
 11
2261.296388924902
 21
3551.500002519093
 31
0.0
 12
2227.296388924902
 22
3551.500002519093
 32
0.0
 13
2227.296388924902
 23
3551.500002519093
 33
0.0
210
0.0
220
0.0
230
1.0
  0
SOLID
  5
5E2
330
5C3
100
AcDbEntity
  8
HATCH
  6
CONTINUOUS
 62
     2
100
AcDbTrace
 10
2227.296388924902
 20
3551.500002519093
 30
0.0
 11
2227.296388924902
 21
2668.500002519095
 31
0.0
 12
2261.296388924902
 22
2668.500002519095
 32
0.0
 13
2261.296388924902
 23
2668.500002519095
 33
0.0
210
0.0
220
0.0
230
1.0
  0
SOLID
  5
5E3
330
5C3
100
AcDbEntity
  8
HATCH
  6
CONTINUOUS
 62
     2
100
AcDbTrace
 10
1523.2963889249
 20
3551.500002519093
 30
0.0
 11
1523.2963889249
 21
2668.500002519095
 31
0.0
 12
1557.2963889249
 22
3551.500002519093
 32
0.0
 13
1557.2963889249
 23
3551.500002519093
 33
0.0
210
0.0
220
0.0
230
1.0
  0
SOLID
  5
5E4
330
5C3
100
AcDbEntity
  8
HATCH
  6
CONTINUOUS
 62
     2
100
AcDbTrace
 10
1834.000006517407
 20
3593.000002519094
 30
0.0
 11
1834.000006517408
 21
3627.000002519094
 31
0.0
 12
1624.000006517408
 22
3627.000002519094
 32
0.0
 13
1624.000006517408
 23
3627.000002519094
 33
0.0
210
0.0
220
0.0
230
1.0
  0
SOLID
  5
5E5
330
5C3
100
AcDbEntity
  8
HATCH
  6
CONTINUOUS
 62
     2
100
AcDbTrace
 10
1624.000006517408
 20
3627.000002519094
 30
0.0
 11
1624.000006517408
 21
3593.000002519094
 31
0.0
 12
1834.000006517407
 22
3593.000002519094
 32
0.0
 13
1834.000006517407
 23
3593.000002519094
 33
0.0
210
0.0
220
0.0
230
1.0
  0
SOLID
  5
5E6
330
5C3
100
AcDbEntity
  8
HATCH
  6
CONTINUOUS
 62
     2
100
AcDbTrace
 10
2161.000006517405
 20
3595.000002519093
 30
0.0
 11
2161.000006517406
 21
3629.000002519091
 31
0.0
 12
1951.000006517408
 22
3629.000002519091
 32
0.0
 13
1951.000006517408
 23
3629.000002519091
 33
0.0
210
0.0
220
0.0
230
1.0
  0
SOLID
  5
5E7
330
5C3
100
AcDbEntity
  8
HATCH
  6
CONTINUOUS
 62
     2
100
AcDbTrace
 10
1951.000006517408
 20
3629.000002519091
 30
0.0
 11
1951.000006517408
 21
3595.000002519093
 31
0.0
 12
2161.000006517405
 22
3595.000002519093
 32
0.0
 13
2161.000006517405
 23
3595.000002519093
 33
0.0
210
0.0
220
0.0
230
1.0
  0
ENDBLK
  5
5E9
330
5C3
100
AcDbEntity
  8
0
100
AcDbBlockEnd
  0
BLOCK
  5
6D3
330
5EA
100
AcDbEntity
  8
0
100
AcDbBlockBegin
  2
*U2
 70
     1
 10
0.0
 20
0.0
 30
0.0
  3
*U2
  1

  0
SOLID
  5
5EB
330
5EA
100
AcDbEntity
  8
HATCH
  6
CONTINUOUS
 62
     1
100
AcDbTrace
 10
1594.328433642155
 20
1556.171575394347
 30
0.0
 11
1489.500006517407
 21
1555.000002519093
 31
0.0
 12
1591.500006517409
 22
1555.000002519093
 32
0.0
 13
1591.500006517409
 23
1555.000002519093
 33
0.0
210
0.0
220
0.0
230
1.0
  0
SOLID
  5
5EC
330
5EA
100
AcDbEntity
  8
HATCH
  6
CONTINUOUS
 62
     1
100
AcDbTrace
 10
1486.671579392661
 20
1556.171575394347
 30
0.0
 11
1489.500006517407
 21
1555.000002519093
 31
0.0
 12
1594.328433642155
 22
1556.171575394347
 32
0.0
 13
1594.328433642155
 23
1556.171575394347
 33
0.0
210
0.0
220
0.0
230
1.0
  0
SOLID
  5
5ED
330
5EA
100
AcDbEntity
  8
HATCH
  6
CONTINUOUS
 62
     1
100
AcDbTrace
 10
2298.328433642156
 20
1556.171575394348
 30
0.0
 11
2193.500006517408
 21
1555.000002519094
 31
0.0
 12
2295.50000651741
 22
1555.000002519094
 32
0.0
 13
2295.50000651741
 23
1555.000002519094
 33
0.0
210
0.0
220
0.0
230
1.0
  0
SOLID
  5
5EE
330
5EA
100
AcDbEntity
  8
HATCH
  6
CONTINUOUS
 62
     1
100
AcDbTrace
 10
2190.671579392661
 20
1556.171575394348
 30
0.0
 11
2193.500006517408
 21
1555.000002519094
 31
0.0
 12
2298.328433642156
 22
1556.171575394348
 32
0.0
 13
2298.328433642156
 23
1556.171575394348
 33
0.0
210
0.0
220
0.0
230
1.0
  0
SOLID
  5
5EF
330
5EA
100
AcDbEntity
  8
HATCH
  6
CONTINUOUS
 62
     1
100
AcDbTrace
 10
1595.500006517409
 20
1559.000002519093
 30
0.0
 11
1486.671579392661
 21
1556.171575394347
 31
0.0
 12
1594.328433642155
 22
1556.171575394347
 32
0.0
 13
1594.328433642155
 23
1556.171575394347
 33
0.0
210
0.0
220
0.0
230
1.0
  0
SOLID
  5
5F0
330
5EA
100
AcDbEntity
  8
HATCH
  6
CONTINUOUS
 62
     1
100
AcDbTrace
 10
1485.500006517407
 20
1559.000002519093
 30
0.0
 11
1486.671579392661
 21
1556.171575394347
 31
0.0
 12
1595.500006517409
 22
1559.000002519093
 32
0.0
 13
1595.500006517409
 23
1559.000002519093
 33
0.0
210
0.0
220
0.0
230
1.0
  0
SOLID
  5
5F1
330
5EA
100
AcDbEntity
  8
HATCH
  6
CONTINUOUS
 62
     1
100
AcDbTrace
 10
2299.50000651741
 20
1559.000002519094
 30
0.0
 11
2190.671579392661
 21
1556.171575394348
 31
0.0
 12
2298.328433642156
 22
1556.171575394348
 32
0.0
 13
2298.328433642156
 23
1556.171575394348
 33
0.0
210
0.0
220
0.0
230
1.0
  0
SOLID
  5
5F2
330
5EA
100
AcDbEntity
  8
HATCH
  6
CONTINUOUS
 62
     1
100
AcDbTrace
 10
2189.500006517408
 20
1559.000002519094
 30
0.0
 11
2190.671579392661
 21
1556.171575394348
 31
0.0
 12
2299.50000651741
 22
1559.000002519094
 32
0.0
 13
2299.50000651741
 23
1559.000002519094
 33
0.0
210
0.0
220
0.0
230
1.0
  0
SOLID
  5
5F3
330
5EA
100
AcDbEntity
  8
HATCH
  6
CONTINUOUS
 62
     1
100
AcDbTrace
 10
1570.500006517409
 20
1566.000002519094
 30
0.0
 11
1485.500006517407
 21
1559.000002519093
 31
0.0
 12
1595.500006517409
 22
1559.000002519093
 32
0.0
 13
1595.500006517409
 23
1559.000002519093
 33
0.0
210
0.0
220
0.0
230
1.0
  0
SOLID
  5
5F4
330
5EA
100
AcDbEntity
  8
HATCH
  6
CONTINUOUS
 62
     1
100
AcDbTrace
 10
2274.50000651741
 20
1566.000002519094
 30
0.0
 11
2189.500006517408
 21
1559.000002519094
 31
0.0
 12
2299.50000651741
 22
1559.000002519094
 32
0.0
 13
2299.50000651741
 23
1559.000002519094
 33
0.0
210
0.0
220
0.0
230
1.0
  0
SOLID
  5
5F5
330
5EA
100
AcDbEntity
  8
HATCH
  6
CONTINUOUS
 62
     1
100
AcDbTrace
 10
1560.600511580798
 20
1570.100507582482
 30
0.0
 11
1485.500006517407
 21
1559.000002519093
 31
0.0
 12
1570.500006517409
 22
1566.000002519094
 32
0.0
 13
1570.500006517409
 23
1566.000002519094
 33
0.0
210
0.0
220
0.0
230
1.0
  0
SOLID
  5
5F6
330
5EA
100
AcDbEntity
  8
HATCH
  6
CONTINUOUS
 62
     1
100
AcDbTrace
 10
1580.399501454021
 20
1570.100507582482
 30
0.0
 11
1570.500006517409
 21
1566.000002519094
 31
0.0
 12
1595.500006517409
 22
1559.000002519093
 32
0.0
 13
1595.500006517409
 23
1559.000002519093
 33
0.0
210
0.0
220
0.0
230
1.0
  0
SOLID
  5
5F7
330
5EA
100
AcDbEntity
  8
HATCH
  6
CONTINUOUS
 62
     1
100
AcDbTrace
 10
2264.600511580799
 20
1570.100507582483
 30
0.0
 11
2189.500006517408
 21
1559.000002519094
 31
0.0
 12
2274.50000651741
 22
1566.000002519094
 32
0.0
 13
2274.50000651741
 23
1566.000002519094
 33
0.0
210
0.0
220
0.0
230
1.0
  0
SOLID
  5
5F8
330
5EA
100
AcDbEntity
  8
HATCH
  6
CONTINUOUS
 62
     1
100
AcDbTrace
 10
2284.399501454022
 20
1570.100507582483
 30
0.0
 11
2274.50000651741
 21
1566.000002519094
 31
0.0
 12
2299.50000651741
 22
1559.000002519094
 32
0.0
 13
2299.50000651741
 23
1559.000002519094
 33
0.0
210
0.0
220
0.0
230
1.0
  0
SOLID
  5
5F9
330
5EA
100
AcDbEntity
  8
HATCH
  6
CONTINUOUS
 62
     1
100
AcDbTrace
 10
1556.50000651741
 20
1580.000002519094
 30
0.0
 11
1485.500006517407
 21
1559.000002519093
 31
0.0
 12
1560.600511580798
 22
1570.100507582482
 32
0.0
 13
1560.600511580798
 23
1570.100507582482
 33
0.0
210
0.0
220
0.0
230
1.0
  0
SOLID
  5
5FA
330
5EA
100
AcDbEntity
  8
HATCH
  6
CONTINUOUS
 62
     1
100
AcDbTrace
 10
1584.500006517409
 20
1580.000002519094
 30
0.0
 11
1580.399501454021
 21
1570.100507582482
 31
0.0
 12
1595.500006517409
 22
1559.000002519093
 32
0.0
 13
1595.500006517409
 23
1559.000002519093
 33
0.0
210
0.0
220
0.0
230
1.0
  0
SOLID
  5
5FB
330
5EA
100
AcDbEntity
  8
HATCH
  6
CONTINUOUS
 62
     1
100
AcDbTrace
 10
2260.500006517411
 20
1580.000002519095
 30
0.0
 11
2189.500006517408
 21
1559.000002519094
 31
0.0
 12
2264.600511580799
 22
1570.100507582483
 32
0.0
 13
2264.600511580799
 23
1570.100507582483
 33
0.0
210
0.0
220
0.0
230
1.0
  0
SOLID
  5
5FC
330
5EA
100
AcDbEntity
  8
HATCH
  6
CONTINUOUS
 62
     1
100
AcDbTrace
 10
2288.500006517411
 20
1580.000002519095
 30
0.0
 11
2284.399501454022
 21
1570.100507582483
 31
0.0
 12
2299.50000651741
 22
1559.000002519094
 32
0.0
 13
2299.50000651741
 23
1559.000002519094
 33
0.0
210
0.0
220
0.0
230
1.0
  0
SOLID
  5
5FD
330
5EA
100
AcDbEntity
  8
HATCH
  6
CONTINUOUS
 62
     1
100
AcDbTrace
 10
1560.600511580798
 20
1589.899497455705
 30
0.0
 11
1485.500006517407
 21
1559.000002519093
 31
0.0
 12
1556.50000651741
 22
1580.000002519094
 32
0.0
 13
1556.50000651741
 23
1580.000002519094
 33
0.0
210
0.0
220
0.0
230
1.0
  0
SOLID
  5
5FE
330
5EA
100
AcDbEntity
  8
HATCH
  6
CONTINUOUS
 62
     1
100
AcDbTrace
 10
1580.399501454021
 20
1589.899497455705
 30
0.0
 11
1584.500006517409
 21
1580.000002519094
 31
0.0
 12
1595.500006517409
 22
1559.000002519093
 32
0.0
 13
1595.500006517409
 23
1559.000002519093
 33
0.0
  0
SOLID
  5
5FF
330
5EA
100
AcDbEntity
  8
HATCH
  6
CONTINUOUS
 62
     1
100
AcDbTrace
 10
2264.600511580799
 20
1589.899497455706
 30
0.0
 11
2189.500006517408
 21
1559.000002519094
 31
0.0
 12
2260.500006517411
 22
1580.000002519095
 32
0.0
 13
2260.500006517411
 23
1580.000002519095
 33
0.0
210
0.0
220
0.0
230
1.0
  0
SOLID
  5
600
330
5EA
100
AcDbEntity
  8
HATCH
  6
CONTINUOUS
 62
     1
100
AcDbTrace
 10
2284.399501454022
 20
1589.899497455706
 30
0.0
 11
2288.500006517411
 21
1580.000002519095
 31
0.0
 12
2299.50000651741
 22
1559.000002519094
 32
0.0
 13
2299.50000651741
 23
1559.000002519094
 33
0.0
210
0.0
220
0.0
230
1.0
  0
SOLID
  5
601
330
5EA
100
AcDbEntity
  8
HATCH
  6
CONTINUOUS
 62
     1
100
AcDbTrace
 10
1570.500006517409
 20
1594.000002519093
 30
0.0
 11
1485.500006517407
 21
1559.000002519093
 31
0.0
 12
1560.600511580798
 22
1589.899497455705
 32
0.0
 13
1560.600511580798
 23
1589.899497455705
 33
0.0
210
0.0
220
0.0
230
1.0
  0
SOLID
  5
602
330
5EA
100
AcDbEntity
  8
HATCH
  6
CONTINUOUS
 62
     1
100
AcDbTrace
 10
2274.50000651741
 20
1594.000002519094
 30
0.0
 11
2189.500006517408
 21
1559.000002519094
 31
0.0
 12
2264.600511580799
 22
1589.899497455706
 32
0.0
 13
2264.600511580799
 23
1589.899497455706
 33
0.0
210
0.0
220
0.0
230
1.0
  0
SOLID
  5
603
330
5EA
100
AcDbEntity
  8
HATCH
  6
CONTINUOUS
 62
     1
100
AcDbTrace
 10
1510.500006517406
 20
1626.000002519093
 30
0.0
 11
1570.500006517409
 21
1594.000002519093
 31
0.0
 12
1580.399501454021
 22
1589.899497455705
 32
0.0
 13
1580.399501454021
 23
1589.899497455705
 33
0.0
210
0.0
220
0.0
230
1.0
  0
SOLID
  5
604
330
5EA
100
AcDbEntity
  8
HATCH
  6
CONTINUOUS
 62
     1
100
AcDbTrace
 10
1510.500006517406
 20
1626.000002519093
 30
0.0
 11
1485.500006517407
 21
1559.000002519093
 31
0.0
 12
1570.500006517409
 22
1594.000002519093
 32
0.0
 13
1570.500006517409
 23
1594.000002519093
 33
0.0
210
0.0
220
0.0
230
1.0
  0
SOLID
  5
605
330
5EA
100
AcDbEntity
  8
HATCH
  6
CONTINUOUS
 62
     1
100
AcDbTrace
 10
2214.500006517407
 20
1626.000002519094
 30
0.0
 11
2274.50000651741
 21
1594.000002519094
 31
0.0
 12
2284.399501454022
 22
1589.899497455706
 32
0.0
 13
2284.399501454022
 23
1589.899497455706
 33
0.0
210
0.0
220
0.0
230
1.0
  0
SOLID
  5
606
330
5EA
100
AcDbEntity
  8
HATCH
  6
CONTINUOUS
 62
     1
100
AcDbTrace
 10
2214.500006517407
 20
1626.000002519094
 30
0.0
 11
2189.500006517408
 21
1559.000002519094
 31
0.0
 12
2274.50000651741
 22
1594.000002519094
 32
0.0
 13
2274.50000651741
 23
1594.000002519094
 33
0.0
210
0.0
220
0.0
230
1.0
  0
SOLID
  5
607
330
5EA
100
AcDbEntity
  8
HATCH
  6
CONTINUOUS
 62
     1
100
AcDbTrace
 10
1500.600511580794
 20
1630.100507582481
 30
0.0
 11
1485.500006517407
 21
1559.000002519093
 31
0.0
 12
1510.500006517406
 22
1626.000002519093
 32
0.0
 13
1510.500006517406
 23
1626.000002519093
 33
0.0
210
0.0
220
0.0
230
1.0
  0
SOLID
  5
608
330
5EA
100
AcDbEntity
  8
HATCH
  6
CONTINUOUS
 62
     1
100
AcDbTrace
 10
1520.399501454018
 20
1630.100507582481
 30
0.0
 11
1510.500006517406
 21
1626.000002519093
 31
0.0
 12
1580.399501454021
 22
1589.899497455705
 32
0.0
 13
1580.399501454021
 23
1589.899497455705
 33
0.0
210
0.0
220
0.0
230
1.0
  0
SOLID
  5
609
330
5EA
100
AcDbEntity
  8
HATCH
  6
CONTINUOUS
 62
     1
100
AcDbTrace
 10
2204.600511580796
 20
1630.100507582482
 30
0.0
 11
2189.500006517408
 21
1559.000002519094
 31
0.0
 12
2214.500006517407
 22
1626.000002519094
 32
0.0
 13
2214.500006517407
 23
1626.000002519094
 33
0.0
210
0.0
220
0.0
230
1.0
  0
SOLID
  5
60A
330
5EA
100
AcDbEntity
  8
HATCH
  6
CONTINUOUS
 62
     1
100
AcDbTrace
 10
2224.399501454018
 20
1630.100507582482
 30
0.0
 11
2214.500006517407
 21
1626.000002519094
 31
0.0
 12
2284.399501454022
 22
1589.899497455706
 32
0.0
 13
2284.399501454022
 23
1589.899497455706
 33
0.0
210
0.0
220
0.0
230
1.0
  0
SOLID
  5
60B
330
5EA
100
AcDbEntity
  8
HATCH
  6
CONTINUOUS
 62
     1
100
AcDbTrace
 10
1496.500006517406
 20
1640.000002519093
 30
0.0
 11
1485.500006517407
 21
1559.000002519093
 31
0.0
 12
1500.600511580794
 22
1630.100507582481
 32
0.0
 13
1500.600511580794
 23
1630.100507582481
 33
0.0
210
0.0
220
0.0
230
1.0
  0
SOLID
  5
60C
330
5EA
100
AcDbEntity
  8
HATCH
  6
CONTINUOUS
 62
     1
100
AcDbTrace
 10
1524.500006517406
 20
1640.000002519093
 30
0.0
 11
1520.399501454018
 21
1630.100507582481
 31
0.0
 12
1580.399501454021
 22
1589.899497455705
 32
0.0
 13
1580.399501454021
 23
1589.899497455705
 33
0.0
210
0.0
220
0.0
230
1.0
  0
SOLID
  5
60D
330
5EA
100
AcDbEntity
  8
HATCH
  6
CONTINUOUS
 62
     1
100
AcDbTrace
 10
2200.500006517407
 20
1640.000002519093
 30
0.0
 11
2189.500006517408
 21
1559.000002519094
 31
0.0
 12
2204.600511580796
 22
1630.100507582482
 32
0.0
 13
2204.600511580796
 23
1630.100507582482
 33
0.0
210
0.0
220
0.0
230
1.0
  0
SOLID
  5
60E
330
5EA
100
AcDbEntity
  8
HATCH
  6
CONTINUOUS
 62
     1
100
AcDbTrace
 10
2228.500006517406
 20
1640.000002519093
 30
0.0
 11
2224.399501454018
 21
1630.100507582482
 31
0.0
 12
2284.399501454022
 22
1589.899497455706
 32
0.0
 13
2284.399501454022
 23
1589.899497455706
 33
0.0
210
0.0
220
0.0
230
1.0
  0
SOLID
  5
60F
330
5EA
100
AcDbEntity
  8
HATCH
  6
CONTINUOUS
 62
     1
100
AcDbTrace
 10
1520.399501454018
 20
1649.899497455704
 30
0.0
 11
1524.500006517406
 21
1640.000002519093
 31
0.0
 12
1580.399501454021
 22
1589.899497455705
 32
0.0
 13
1580.399501454021
 23
1589.899497455705
 33
0.0
210
0.0
220
0.0
230
1.0
  0
SOLID
  5
610
330
5EA
100
AcDbEntity
  8
HATCH
  6
CONTINUOUS
 62
     1
100
AcDbTrace
 10
2224.399501454018
 20
1649.899497455705
 30
0.0
 11
2228.500006517406
 21
1640.000002519093
 31
0.0
 12
2284.399501454022
 22
1589.899497455706
 32
0.0
 13
2284.399501454022
 23
1589.899497455706
 33
0.0
210
0.0
220
0.0
230
1.0
  0
SOLID
  5
611
330
5EA
100
AcDbEntity
  8
HATCH
  6
CONTINUOUS
 62
     1
100
AcDbTrace
 10
1595.500006517406
 20
1661.000002519093
 30
0.0
 11
1510.500006517406
 21
1654.000002519093
 31
0.0
 12
1520.399501454018
 22
1649.899497455704
 32
0.0
 13
1520.399501454018
 23
1649.899497455704
 33
0.0
  0
SOLID
  5
612
330
5EA
100
AcDbEntity
  8
HATCH
  6
CONTINUOUS
 62
     1
100
AcDbTrace
 10
1595.500006517406
 20
1661.000002519093
 30
0.0
 11
1520.399501454018
 21
1649.899497455704
 31
0.0
 12
1580.399501454021
 22
1589.899497455705
 32
0.0
 13
1580.399501454021
 23
1589.899497455705
 33
0.0
  0
SOLID
  5
613
330
5EA
100
AcDbEntity
  8
HATCH
  6
CONTINUOUS
 62
     1
100
AcDbTrace
 10
1595.500006517406
 20
1661.000002519093
 30
0.0
 11
1580.399501454021
 21
1589.899497455705
 31
0.0
 12
1595.500006517409
 22
1559.000002519093
 32
0.0
 13
1595.500006517409
 23
1559.000002519093
 33
0.0
  0
SOLID
  5
614
330
5EA
100
AcDbEntity
  8
HATCH
  6
CONTINUOUS
 62
     1
100
AcDbTrace
 10
2299.500006517407
 20
1661.000002519093
 30
0.0
 11
2214.500006517407
 21
1654.000002519094
 31
0.0
 12
2224.399501454018
 22
1649.899497455705
 32
0.0
 13
2224.399501454018
 23
1649.899497455705
 33
0.0
210
0.0
220
0.0
230
1.0
  0
SOLID
  5
615
330
5EA
100
AcDbEntity
  8
HATCH
  6
CONTINUOUS
 62
     1
100
AcDbTrace
 10
2299.500006517407
 20
1661.000002519093
 30
0.0
 11
2224.399501454018
 21
1649.899497455705
 31
0.0
 12
2284.399501454022
 22
1589.899497455706
 32
0.0
 13
2284.399501454022
 23
1589.899497455706
 33
0.0
210
0.0
220
0.0
230
1.0
  0
SOLID
  5
616
330
5EA
100
AcDbEntity
  8
HATCH
  6
CONTINUOUS
 62
     1
100
AcDbTrace
 10
2299.500006517407
 20
1661.000002519093
 30
0.0
 11
2284.399501454022
 21
1589.899497455706
 31
0.0
 12
2299.50000651741
 22
1559.000002519094
 32
0.0
 13
2299.50000651741
 23
1559.000002519094
 33
0.0
210
0.0
220
0.0
230
1.0
  0
SOLID
  5
617
330
5EA
100
AcDbEntity
  8
HATCH
  6
CONTINUOUS
 62
     1
100
AcDbTrace
 10
1485.500006517407
 20
1661.000002519093
 30
0.0
 11
1510.500006517406
 21
1654.000002519093
 31
0.0
 12
1595.500006517406
 22
1661.000002519093
 32
0.0
 13
1595.500006517406
 23
1661.000002519093
 33
0.0
  0
SOLID
  5
618
330
5EA
100
AcDbEntity
  8
HATCH
  6
CONTINUOUS
 62
     1
100
AcDbTrace
 10
1485.500006517407
 20
1661.000002519093
 30
0.0
 11
1500.600511580794
 21
1649.899497455704
 31
0.0
 12
1510.500006517406
 22
1654.000002519093
 32
0.0
 13
1510.500006517406
 23
1654.000002519093
 33
0.0
210
0.0
220
0.0
230
1.0
  0
SOLID
  5
619
330
5EA
100
AcDbEntity
  8
HATCH
  6
CONTINUOUS
 62
     1
100
AcDbTrace
 10
1485.500006517407
 20
1661.000002519093
 30
0.0
 11
1496.500006517406
 21
1640.000002519093
 31
0.0
 12
1500.600511580794
 22
1649.899497455704
 32
0.0
 13
1500.600511580794
 23
1649.899497455704
 33
0.0
210
0.0
220
0.0
230
1.0
  0
SOLID
  5
61A
330
5EA
100
AcDbEntity
  8
HATCH
  6
CONTINUOUS
 62
     1
100
AcDbTrace
 10
1485.500006517407
 20
1661.000002519093
 30
0.0
 11
1485.500006517407
 21
1559.000002519093
 31
0.0
 12
1496.500006517406
 22
1640.000002519093
 32
0.0
 13
1496.500006517406
 23
1640.000002519093
 33
0.0
210
0.0
220
0.0
230
1.0
  0
SOLID
  5
61B
330
5EA
100
AcDbEntity
  8
HATCH
  6
CONTINUOUS
 62
     1
100
AcDbTrace
 10
2189.500006517408
 20
1661.000002519094
 30
0.0
 11
2214.500006517407
 21
1654.000002519094
 31
0.0
 12
2299.500006517407
 22
1661.000002519093
 32
0.0
 13
2299.500006517407
 23
1661.000002519093
 33
0.0
  0
SOLID
  5
61C
330
5EA
100
AcDbEntity
  8
HATCH
  6
CONTINUOUS
 62
     1
100
AcDbTrace
 10
2189.500006517408
 20
1661.000002519094
 30
0.0
 11
2204.600511580796
 21
1649.899497455705
 31
0.0
 12
2214.500006517407
 22
1654.000002519094
 32
0.0
 13
2214.500006517407
 23
1654.000002519094
 33
0.0
210
0.0
220
0.0
230
1.0
  0
SOLID
  5
61D
330
5EA
100
AcDbEntity
  8
HATCH
  6
CONTINUOUS
 62
     1
100
AcDbTrace
 10
2189.500006517408
 20
1661.000002519094
 30
0.0
 11
2200.500006517407
 21
1640.000002519093
 31
0.0
 12
2204.600511580796
 22
1649.899497455705
 32
0.0
 13
2204.600511580796
 23
1649.899497455705
 33
0.0
210
0.0
220
0.0
230
1.0
  0
SOLID
  5
61E
330
5EA
100
AcDbEntity
  8
HATCH
  6
CONTINUOUS
 62
     1
100
AcDbTrace
 10
2189.500006517408
 20
1661.000002519094
 30
0.0
 11
2189.500006517408
 21
1559.000002519094
 31
0.0
 12
2200.500006517407
 22
1640.000002519093
 32
0.0
 13
2200.500006517407
 23
1640.000002519093
 33
0.0
210
0.0
220
0.0
230
1.0
  0
SOLID
  5
61F
330
5EA
100
AcDbEntity
  8
HATCH
  6
CONTINUOUS
 62
     1
100
AcDbTrace
 10
1594.328433642152
 20
1663.828429643839
 30
0.0
 11
1485.500006517407
 21
1661.000002519093
 31
0.0
 12
1595.500006517406
 22
1661.000002519093
 32
0.0
 13
1595.500006517406
 23
1661.000002519093
 33
0.0
210
0.0
220
0.0
230
1.0
  0
SOLID
  5
620
330
5EA
100
AcDbEntity
  8
HATCH
  6
CONTINUOUS
 62
     1
100
AcDbTrace
 10
2298.328433642153
 20
1663.82842964384
 30
0.0
 11
2189.500006517408
 21
1661.000002519094
 31
0.0
 12
2299.500006517407
 22
1661.000002519093
 32
0.0
 13
2299.500006517407
 23
1661.000002519093
 33
0.0
210
0.0
220
0.0
230
1.0
  0
SOLID
  5
621
330
5EA
100
AcDbEntity
  8
HATCH
  6
CONTINUOUS
 62
     1
100
AcDbTrace
 10
1486.671579392661
 20
1663.82842964384
 30
0.0
 11
1485.500006517407
 21
1661.000002519093
 31
0.0
 12
1594.328433642152
 22
1663.828429643839
 32
0.0
 13
1594.328433642152
 23
1663.828429643839
 33
0.0
  0
SOLID
  5
622
330
5EA
100
AcDbEntity
  8
HATCH
  6
CONTINUOUS
 62
     1
100
AcDbTrace
 10
2190.671579392661
 20
1663.828429643841
 30
0.0
 11
2189.500006517408
 21
1661.000002519094
 31
0.0
 12
2298.328433642153
 22
1663.82842964384
 32
0.0
 13
2298.328433642153
 23
1663.82842964384
 33
0.0
  0
SOLID
  5
623
330
5EA
100
AcDbEntity
  8
HATCH
  6
CONTINUOUS
 62
     1
100
AcDbTrace
 10
1591.500006517406
 20
1665.000002519093
 30
0.0
 11
1486.671579392661
 21
1663.82842964384
 31
0.0
 12
1594.328433642152
 22
1663.828429643839
 32
0.0
 13
1594.328433642152
 23
1663.828429643839
 33
0.0
210
0.0
220
0.0
230
1.0
  0
SOLID
  5
624
330
5EA
100
AcDbEntity
  8
HATCH
  6
CONTINUOUS
 62
     1
100
AcDbTrace
 10
1489.500006517407
 20
1665.000002519093
 30
0.0
 11
1486.671579392661
 21
1663.82842964384
 31
0.0
 12
1591.500006517406
 22
1665.000002519093
 32
0.0
 13
1591.500006517406
 23
1665.000002519093
 33
0.0
210
0.0
220
0.0
230
1.0
  0
SOLID
  5
625
330
5EA
100
AcDbEntity
  8
HATCH
  6
CONTINUOUS
 62
     1
100
AcDbTrace
 10
2295.500006517407
 20
1665.000002519093
 30
0.0
 11
2190.671579392661
 21
1663.828429643841
 31
0.0
 12
2298.328433642153
 22
1663.82842964384
 32
0.0
 13
2298.328433642153
 23
1663.82842964384
 33
0.0
210
0.0
220
0.0
230
1.0
  0
SOLID
  5
626
330
5EA
100
AcDbEntity
  8
HATCH
  6
CONTINUOUS
 62
     1
100
AcDbTrace
 10
2193.500006517408
 20
1665.000002519095
 30
0.0
 11
2190.671579392661
 21
1663.828429643841
 31
0.0
 12
2295.500006517407
 22
1665.000002519093
 32
0.0
 13
2295.500006517407
 23
1665.000002519093
 33
0.0
210
0.0
220
0.0
230
1.0
  0
SOLID
  5
627
330
5EA
100
AcDbEntity
  8
HATCH
  6
CONTINUOUS
 62
     1
100
AcDbTrace
 10
1594.328433642155
 20
2556.171575394348
 30
0.0
 11
1489.500006517407
 21
2555.000002519094
 31
0.0
 12
1591.500006517409
 22
2555.000002519094
 32
0.0
 13
1591.500006517409
 23
2555.000002519094
 33
0.0
210
0.0
220
0.0
230
1.0
  0
SOLID
  5
628
330
5EA
100
AcDbEntity
  8
HATCH
  6
CONTINUOUS
 62
     1
100
AcDbTrace
 10
1486.671579392661
 20
2556.171575394348
 30
0.0
 11
1489.500006517407
 21
2555.000002519094
 31
0.0
 12
1594.328433642155
 22
2556.171575394348
 32
0.0
 13
1594.328433642155
 23
2556.171575394348
 33
0.0
210
0.0
220
0.0
230
1.0
  0
SOLID
  5
629
330
5EA
100
AcDbEntity
  8
HATCH
  6
CONTINUOUS
 62
     1
100
AcDbTrace
 10
2298.328433642156
 20
2556.171575394349
 30
0.0
 11
2193.500006517408
 21
2555.000002519095
 31
0.0
 12
2295.50000651741
 22
2555.000002519095
 32
0.0
 13
2295.50000651741
 23
2555.000002519095
 33
0.0
210
0.0
220
0.0
230
1.0
  0
SOLID
  5
62A
330
5EA
100
AcDbEntity
  8
HATCH
  6
CONTINUOUS
 62
     1
100
AcDbTrace
 10
2190.671579392661
 20
2556.171575394349
 30
0.0
 11
2193.500006517408
 21
2555.000002519095
 31
0.0
 12
2298.328433642156
 22
2556.171575394349
 32
0.0
 13
2298.328433642156
 23
2556.171575394349
 33
0.0
210
0.0
220
0.0
230
1.0
  0
SOLID
  5
62B
330
5EA
100
AcDbEntity
  8
HATCH
  6
CONTINUOUS
 62
     1
100
AcDbTrace
 10
1595.500006517409
 20
2559.000002519095
 30
0.0
 11
1486.671579392661
 21
2556.171575394348
 31
0.0
 12
1594.328433642155
 22
2556.171575394348
 32
0.0
 13
1594.328433642155
 23
2556.171575394348
 33
0.0
210
0.0
220
0.0
230
1.0
  0
SOLID
  5
62C
330
5EA
100
AcDbEntity
  8
HATCH
  6
CONTINUOUS
 62
     1
100
AcDbTrace
 10
1485.500006517407
 20
2559.000002519095
 30
0.0
 11
1486.671579392661
 21
2556.171575394348
 31
0.0
 12
1595.500006517409
 22
2559.000002519095
 32
0.0
 13
1595.500006517409
 23
2559.000002519095
 33
0.0
210
0.0
220
0.0
230
1.0
  0
SOLID
  5
62D
330
5EA
100
AcDbEntity
  8
HATCH
  6
CONTINUOUS
 62
     1
100
AcDbTrace
 10
2299.50000651741
 20
2559.000002519095
 30
0.0
 11
2190.671579392661
 21
2556.171575394349
 31
0.0
 12
2298.328433642156
 22
2556.171575394349
 32
0.0
 13
2298.328433642156
 23
2556.171575394349
 33
0.0
210
0.0
220
0.0
230
1.0
  0
SOLID
  5
62E
330
5EA
100
AcDbEntity
  8
HATCH
  6
CONTINUOUS
 62
     1
100
AcDbTrace
 10
2189.500006517408
 20
2559.000002519095
 30
0.0
 11
2190.671579392661
 21
2556.171575394349
 31
0.0
 12
2299.50000651741
 22
2559.000002519095
 32
0.0
 13
2299.50000651741
 23
2559.000002519095
 33
0.0
210
0.0
220
0.0
230
1.0
  0
SOLID
  5
62F
330
5EA
100
AcDbEntity
  8
HATCH
  6
CONTINUOUS
 62
     1
100
AcDbTrace
 10
1570.500006517409
 20
2566.000002519094
 30
0.0
 11
1485.500006517407
 21
2559.000002519095
 31
0.0
 12
1595.500006517409
 22
2559.000002519095
 32
0.0
 13
1595.500006517409
 23
2559.000002519095
 33
0.0
210
0.0
220
0.0
230
1.0
  0
SOLID
  5
630
330
5EA
100
AcDbEntity
  8
HATCH
  6
CONTINUOUS
 62
     1
100
AcDbTrace
 10
2274.50000651741
 20
2566.000002519095
 30
0.0
 11
2189.500006517408
 21
2559.000002519095
 31
0.0
 12
2299.50000651741
 22
2559.000002519095
 32
0.0
 13
2299.50000651741
 23
2559.000002519095
 33
0.0
210
0.0
220
0.0
230
1.0
  0
SOLID
  5
631
330
5EA
100
AcDbEntity
  8
HATCH
  6
CONTINUOUS
 62
     1
100
AcDbTrace
 10
1560.600511580798
 20
2570.100507582483
 30
0.0
 11
1485.500006517407
 21
2559.000002519095
 31
0.0
 12
1570.500006517409
 22
2566.000002519094
 32
0.0
 13
1570.500006517409
 23
2566.000002519094
 33
0.0
210
0.0
220
0.0
230
1.0
  0
SOLID
  5
632
330
5EA
100
AcDbEntity
  8
HATCH
  6
CONTINUOUS
 62
     1
100
AcDbTrace
 10
1580.399501454021
 20
2570.100507582483
 30
0.0
 11
1570.500006517409
 21
2566.000002519094
 31
0.0
 12
1595.500006517409
 22
2559.000002519095
 32
0.0
 13
1595.500006517409
 23
2559.000002519095
 33
0.0
210
0.0
220
0.0
230
1.0
  0
SOLID
  5
633
330
5EA
100
AcDbEntity
  8
HATCH
  6
CONTINUOUS
 62
     1
100
AcDbTrace
 10
2264.600511580799
 20
2570.100507582484
 30
0.0
 11
2189.500006517408
 21
2559.000002519095
 31
0.0
 12
2274.50000651741
 22
2566.000002519095
 32
0.0
 13
2274.50000651741
 23
2566.000002519095
 33
0.0
210
0.0
220
0.0
230
1.0
  0
SOLID
  5
634
330
5EA
100
AcDbEntity
  8
HATCH
  6
CONTINUOUS
 62
     1
100
AcDbTrace
 10
2284.399501454022
 20
2570.100507582484
 30
0.0
 11
2274.50000651741
 21
2566.000002519095
 31
0.0
 12
2299.50000651741
 22
2559.000002519095
 32
0.0
 13
2299.50000651741
 23
2559.000002519095
 33
0.0
210
0.0
220
0.0
230
1.0
  0
SOLID
  5
635
330
5EA
100
AcDbEntity
  8
HATCH
  6
CONTINUOUS
 62
     1
100
AcDbTrace
 10
1556.50000651741
 20
2580.000002519094
 30
0.0
 11
1485.500006517407
 21
2559.000002519095
 31
0.0
 12
1560.600511580798
 22
2570.100507582483
 32
0.0
 13
1560.600511580798
 23
2570.100507582483
 33
0.0
210
0.0
220
0.0
230
1.0
  0
SOLID
  5
636
330
5EA
100
AcDbEntity
  8
HATCH
  6
CONTINUOUS
 62
     1
100
AcDbTrace
 10
1584.500006517409
 20
2580.000002519094
 30
0.0
 11
1580.399501454021
 21
2570.100507582483
 31
0.0
 12
1595.500006517409
 22
2559.000002519095
 32
0.0
 13
1595.500006517409
 23
2559.000002519095
 33
0.0
210
0.0
220
0.0
230
1.0
  0
SOLID
  5
637
330
5EA
100
AcDbEntity
  8
HATCH
  6
CONTINUOUS
 62
     1
100
AcDbTrace
 10
2260.500006517411
 20
2580.000002519096
 30
0.0
 11
2189.500006517408
 21
2559.000002519095
 31
0.0
 12
2264.600511580799
 22
2570.100507582484
 32
0.0
 13
2264.600511580799
 23
2570.100507582484
 33
0.0
210
0.0
220
0.0
230
1.0
  0
SOLID
  5
638
330
5EA
100
AcDbEntity
  8
HATCH
  6
CONTINUOUS
 62
     1
100
AcDbTrace
 10
2288.500006517411
 20
2580.000002519096
 30
0.0
 11
2284.399501454022
 21
2570.100507582484
 31
0.0
 12
2299.50000651741
 22
2559.000002519095
 32
0.0
 13
2299.50000651741
 23
2559.000002519095
 33
0.0
210
0.0
220
0.0
230
1.0
  0
SOLID
  5
639
330
5EA
100
AcDbEntity
  8
HATCH
  6
CONTINUOUS
 62
     1
100
AcDbTrace
 10
1560.600511580798
 20
2589.899497455706
 30
0.0
 11
1485.500006517407
 21
2559.000002519095
 31
0.0
 12
1556.50000651741
 22
2580.000002519094
 32
0.0
 13
1556.50000651741
 23
2580.000002519094
 33
0.0
210
0.0
220
0.0
230
1.0
  0
SOLID
  5
63A
330
5EA
100
AcDbEntity
  8
HATCH
  6
CONTINUOUS
 62
     1
100
AcDbTrace
 10
1580.399501454021
 20
2589.899497455706
 30
0.0
 11
1584.500006517409
 21
2580.000002519094
 31
0.0
 12
1595.500006517409
 22
2559.000002519095
 32
0.0
 13
1595.500006517409
 23
2559.000002519095
 33
0.0
  0
SOLID
  5
63B
330
5EA
100
AcDbEntity
  8
HATCH
  6
CONTINUOUS
 62
     1
100
AcDbTrace
 10
2264.600511580799
 20
2589.899497455707
 30
0.0
 11
2189.500006517408
 21
2559.000002519095
 31
0.0
 12
2260.500006517411
 22
2580.000002519096
 32
0.0
 13
2260.500006517411
 23
2580.000002519096
 33
0.0
210
0.0
220
0.0
230
1.0
  0
SOLID
  5
63C
330
5EA
100
AcDbEntity
  8
HATCH
  6
CONTINUOUS
 62
     1
100
AcDbTrace
 10
2284.399501454022
 20
2589.899497455707
 30
0.0
 11
2288.500006517411
 21
2580.000002519096
 31
0.0
 12
2299.50000651741
 22
2559.000002519095
 32
0.0
 13
2299.50000651741
 23
2559.000002519095
 33
0.0
210
0.0
220
0.0
230
1.0
  0
SOLID
  5
63D
330
5EA
100
AcDbEntity
  8
HATCH
  6
CONTINUOUS
 62
     1
100
AcDbTrace
 10
1570.500006517409
 20
2594.000002519095
 30
0.0
 11
1485.500006517407
 21
2559.000002519095
 31
0.0
 12
1560.600511580798
 22
2589.899497455706
 32
0.0
 13
1560.600511580798
 23
2589.899497455706
 33
0.0
210
0.0
220
0.0
230
1.0
  0
SOLID
  5
63E
330
5EA
100
AcDbEntity
  8
HATCH
  6
CONTINUOUS
 62
     1
100
AcDbTrace
 10
2274.50000651741
 20
2594.000002519095
 30
0.0
 11
2189.500006517408
 21
2559.000002519095
 31
0.0
 12
2264.600511580799
 22
2589.899497455707
 32
0.0
 13
2264.600511580799
 23
2589.899497455707
 33
0.0
210
0.0
220
0.0
230
1.0
  0
SOLID
  5
63F
330
5EA
100
AcDbEntity
  8
HATCH
  6
CONTINUOUS
 62
     1
100
AcDbTrace
 10
1510.500006517406
 20
2626.000002519094
 30
0.0
 11
1570.500006517409
 21
2594.000002519095
 31
0.0
 12
1580.399501454021
 22
2589.899497455706
 32
0.0
 13
1580.399501454021
 23
2589.899497455706
 33
0.0
210
0.0
220
0.0
230
1.0
  0
SOLID
  5
640
330
5EA
100
AcDbEntity
  8
HATCH
  6
CONTINUOUS
 62
     1
100
AcDbTrace
 10
1510.500006517406
 20
2626.000002519094
 30
0.0
 11
1485.500006517407
 21
2559.000002519095
 31
0.0
 12
1570.500006517409
 22
2594.000002519095
 32
0.0
 13
1570.500006517409
 23
2594.000002519095
 33
0.0
210
0.0
220
0.0
230
1.0
  0
SOLID
  5
641
330
5EA
100
AcDbEntity
  8
HATCH
  6
CONTINUOUS
 62
     1
100
AcDbTrace
 10
2214.500006517407
 20
2626.000002519095
 30
0.0
 11
2274.50000651741
 21
2594.000002519095
 31
0.0
 12
2284.399501454022
 22
2589.899497455707
 32
0.0
 13
2284.399501454022
 23
2589.899497455707
 33
0.0
210
0.0
220
0.0
230
1.0
  0
SOLID
  5
642
330
5EA
100
AcDbEntity
  8
HATCH
  6
CONTINUOUS
 62
     1
100
AcDbTrace
 10
2214.500006517407
 20
2626.000002519095
 30
0.0
 11
2189.500006517408
 21
2559.000002519095
 31
0.0
 12
2274.50000651741
 22
2594.000002519095
 32
0.0
 13
2274.50000651741
 23
2594.000002519095
 33
0.0
210
0.0
220
0.0
230
1.0
  0
SOLID
  5
643
330
5EA
100
AcDbEntity
  8
HATCH
  6
CONTINUOUS
 62
     1
100
AcDbTrace
 10
1500.600511580794
 20
2630.100507582482
 30
0.0
 11
1485.500006517407
 21
2559.000002519095
 31
0.0
 12
1510.500006517406
 22
2626.000002519094
 32
0.0
 13
1510.500006517406
 23
2626.000002519094
 33
0.0
210
0.0
220
0.0
230
1.0
  0
SOLID
  5
644
330
5EA
100
AcDbEntity
  8
HATCH
  6
CONTINUOUS
 62
     1
100
AcDbTrace
 10
1520.399501454018
 20
2630.100507582482
 30
0.0
 11
1510.500006517406
 21
2626.000002519094
 31
0.0
 12
1580.399501454021
 22
2589.899497455706
 32
0.0
 13
1580.399501454021
 23
2589.899497455706
 33
0.0
  0
SOLID
  5
645
330
5EA
100
AcDbEntity
  8
HATCH
  6
CONTINUOUS
 62
     1
100
AcDbTrace
 10
2204.600511580796
 20
2630.100507582483
 30
0.0
 11
2189.500006517408
 21
2559.000002519095
 31
0.0
 12
2214.500006517407
 22
2626.000002519095
 32
0.0
 13
2214.500006517407
 23
2626.000002519095
 33
0.0
210
0.0
220
0.0
230
1.0
  0
SOLID
  5
646
330
5EA
100
AcDbEntity
  8
HATCH
  6
CONTINUOUS
 62
     1
100
AcDbTrace
 10
2224.399501454018
 20
2630.100507582483
 30
0.0
 11
2214.500006517407
 21
2626.000002519095
 31
0.0
 12
2284.399501454022
 22
2589.899497455707
 32
0.0
 13
2284.399501454022
 23
2589.899497455707
 33
0.0
210
0.0
220
0.0
230
1.0
  0
SOLID
  5
647
330
5EA
100
AcDbEntity
  8
HATCH
  6
CONTINUOUS
 62
     1
100
AcDbTrace
 10
1496.500006517406
 20
2640.000002519093
 30
0.0
 11
1485.500006517407
 21
2559.000002519095
 31
0.0
 12
1500.600511580794
 22
2630.100507582482
 32
0.0
 13
1500.600511580794
 23
2630.100507582482
 33
0.0
210
0.0
220
0.0
230
1.0
  0
SOLID
  5
648
330
5EA
100
AcDbEntity
  8
HATCH
  6
CONTINUOUS
 62
     1
100
AcDbTrace
 10
1524.500006517406
 20
2640.000002519093
 30
0.0
 11
1520.399501454018
 21
2630.100507582482
 31
0.0
 12
1580.399501454021
 22
2589.899497455706
 32
0.0
 13
1580.399501454021
 23
2589.899497455706
 33
0.0
210
0.0
220
0.0
230
1.0
  0
SOLID
  5
649
330
5EA
100
AcDbEntity
  8
HATCH
  6
CONTINUOUS
 62
     1
100
AcDbTrace
 10
2200.500006517407
 20
2640.000002519094
 30
0.0
 11
2189.500006517408
 21
2559.000002519095
 31
0.0
 12
2204.600511580796
 22
2630.100507582483
 32
0.0
 13
2204.600511580796
 23
2630.100507582483
 33
0.0
210
0.0
220
0.0
230
1.0
  0
SOLID
  5
64A
330
5EA
100
AcDbEntity
  8
HATCH
  6
CONTINUOUS
 62
     1
100
AcDbTrace
 10
2228.500006517406
 20
2640.000002519094
 30
0.0
 11
2224.399501454018
 21
2630.100507582483
 31
0.0
 12
2284.399501454022
 22
2589.899497455707
 32
0.0
 13
2284.399501454022
 23
2589.899497455707
 33
0.0
210
0.0
220
0.0
230
1.0
  0
SOLID
  5
64B
330
5EA
100
AcDbEntity
  8
HATCH
  6
CONTINUOUS
 62
     1
100
AcDbTrace
 10
1520.399501454018
 20
2649.899497455705
 30
0.0
 11
1524.500006517406
 21
2640.000002519093
 31
0.0
 12
1580.399501454021
 22
2589.899497455706
 32
0.0
 13
1580.399501454021
 23
2589.899497455706
 33
0.0
210
0.0
220
0.0
230
1.0
  0
SOLID
  5
64C
330
5EA
100
AcDbEntity
  8
HATCH
  6
CONTINUOUS
 62
     1
100
AcDbTrace
 10
2224.399501454018
 20
2649.899497455706
 30
0.0
 11
2228.500006517406
 21
2640.000002519094
 31
0.0
 12
2284.399501454022
 22
2589.899497455707
 32
0.0
 13
2284.399501454022
 23
2589.899497455707
 33
0.0
  0
SOLID
  5
64D
330
5EA
100
AcDbEntity
  8
HATCH
  6
CONTINUOUS
 62
     1
100
AcDbTrace
 10
1595.500006517406
 20
2661.000002519093
 30
0.0
 11
1510.500006517406
 21
2654.000002519094
 31
0.0
 12
1520.399501454018
 22
2649.899497455705
 32
0.0
 13
1520.399501454018
 23
2649.899497455705
 33
0.0
210
0.0
220
0.0
230
1.0
  0
SOLID
  5
64E
330
5EA
100
AcDbEntity
  8
HATCH
  6
CONTINUOUS
 62
     1
100
AcDbTrace
 10
1595.500006517406
 20
2661.000002519093
 30
0.0
 11
1520.399501454018
 21
2649.899497455705
 31
0.0
 12
1580.399501454021
 22
2589.899497455706
 32
0.0
 13
1580.399501454021
 23
2589.899497455706
 33
0.0
210
0.0
220
0.0
230
1.0
  0
SOLID
  5
64F
330
5EA
100
AcDbEntity
  8
HATCH
  6
CONTINUOUS
 62
     1
100
AcDbTrace
 10
1595.500006517406
 20
2661.000002519093
 30
0.0
 11
1580.399501454021
 21
2589.899497455706
 31
0.0
 12
1595.500006517409
 22
2559.000002519095
 32
0.0
 13
1595.500006517409
 23
2559.000002519095
 33
0.0
  0
SOLID
  5
650
330
5EA
100
AcDbEntity
  8
HATCH
  6
CONTINUOUS
 62
     1
100
AcDbTrace
 10
2299.500006517407
 20
2661.000002519095
 30
0.0
 11
2214.500006517407
 21
2654.000002519095
 31
0.0
 12
2224.399501454018
 22
2649.899497455706
 32
0.0
 13
2224.399501454018
 23
2649.899497455706
 33
0.0
210
0.0
220
0.0
230
1.0
  0
SOLID
  5
651
330
5EA
100
AcDbEntity
  8
HATCH
  6
CONTINUOUS
 62
     1
100
AcDbTrace
 10
2299.500006517407
 20
2661.000002519095
 30
0.0
 11
2224.399501454018
 21
2649.899497455706
 31
0.0
 12
2284.399501454022
 22
2589.899497455707
 32
0.0
 13
2284.399501454022
 23
2589.899497455707
 33
0.0
210
0.0
220
0.0
230
1.0
  0
SOLID
  5
652
330
5EA
100
AcDbEntity
  8
HATCH
  6
CONTINUOUS
 62
     1
100
AcDbTrace
 10
2299.500006517407
 20
2661.000002519095
 30
0.0
 11
2284.399501454022
 21
2589.899497455707
 31
0.0
 12
2299.50000651741
 22
2559.000002519095
 32
0.0
 13
2299.50000651741
 23
2559.000002519095
 33
0.0
210
0.0
220
0.0
230
1.0
  0
SOLID
  5
653
330
5EA
100
AcDbEntity
  8
HATCH
  6
CONTINUOUS
 62
     1
100
AcDbTrace
 10
1485.500006517407
 20
2661.000002519095
 30
0.0
 11
1510.500006517406
 21
2654.000002519094
 31
0.0
 12
1595.500006517406
 22
2661.000002519093
 32
0.0
 13
1595.500006517406
 23
2661.000002519093
 33
0.0
  0
SOLID
  5
654
330
5EA
100
AcDbEntity
  8
HATCH
  6
CONTINUOUS
 62
     1
100
AcDbTrace
 10
1485.500006517407
 20
2661.000002519095
 30
0.0
 11
1500.600511580794
 21
2649.899497455705
 31
0.0
 12
1510.500006517406
 22
2654.000002519094
 32
0.0
 13
1510.500006517406
 23
2654.000002519094
 33
0.0
  0
SOLID
  5
655
330
5EA
100
AcDbEntity
  8
HATCH
  6
CONTINUOUS
 62
     1
100
AcDbTrace
 10
1485.500006517407
 20
2661.000002519095
 30
0.0
 11
1496.500006517406
 21
2640.000002519093
 31
0.0
 12
1500.600511580794
 22
2649.899497455705
 32
0.0
 13
1500.600511580794
 23
2649.899497455705
 33
0.0
210
0.0
220
0.0
230
1.0
  0
SOLID
  5
656
330
5EA
100
AcDbEntity
  8
HATCH
  6
CONTINUOUS
 62
     1
100
AcDbTrace
 10
1485.500006517407
 20
2661.000002519095
 30
0.0
 11
1485.500006517407
 21
2559.000002519095
 31
0.0
 12
1496.500006517406
 22
2640.000002519093
 32
0.0
 13
1496.500006517406
 23
2640.000002519093
 33
0.0
210
0.0
220
0.0
230
1.0
  0
SOLID
  5
657
330
5EA
100
AcDbEntity
  8
HATCH
  6
CONTINUOUS
 62
     1
100
AcDbTrace
 10
2189.500006517408
 20
2661.000002519095
 30
0.0
 11
2214.500006517407
 21
2654.000002519095
 31
0.0
 12
2299.500006517407
 22
2661.000002519095
 32
0.0
 13
2299.500006517407
 23
2661.000002519095
 33
0.0
  0
SOLID
  5
658
330
5EA
100
AcDbEntity
  8
HATCH
  6
CONTINUOUS
 62
     1
100
AcDbTrace
 10
2189.500006517408
 20
2661.000002519095
 30
0.0
 11
2204.600511580796
 21
2649.899497455706
 31
0.0
 12
2214.500006517407
 22
2654.000002519095
 32
0.0
 13
2214.500006517407
 23
2654.000002519095
 33
0.0
210
0.0
220
0.0
230
1.0
  0
SOLID
  5
659
330
5EA
100
AcDbEntity
  8
HATCH
  6
CONTINUOUS
 62
     1
100
AcDbTrace
 10
2189.500006517408
 20
2661.000002519095
 30
0.0
 11
2200.500006517407
 21
2640.000002519094
 31
0.0
 12
2204.600511580796
 22
2649.899497455706
 32
0.0
 13
2204.600511580796
 23
2649.899497455706
 33
0.0
210
0.0
220
0.0
230
1.0
  0
SOLID
  5
65A
330
5EA
100
AcDbEntity
  8
HATCH
  6
CONTINUOUS
 62
     1
100
AcDbTrace
 10
2189.500006517408
 20
2661.000002519095
 30
0.0
 11
2189.500006517408
 21
2559.000002519095
 31
0.0
 12
2200.500006517407
 22
2640.000002519094
 32
0.0
 13
2200.500006517407
 23
2640.000002519094
 33
0.0
210
0.0
220
0.0
230
1.0
  0
SOLID
  5
65B
330
5EA
100
AcDbEntity
  8
HATCH
  6
CONTINUOUS
 62
     1
100
AcDbTrace
 10
1594.328433642152
 20
2663.82842964384
 30
0.0
 11
1485.500006517407
 21
2661.000002519095
 31
0.0
 12
1595.500006517406
 22
2661.000002519093
 32
0.0
 13
1595.500006517406
 23
2661.000002519093
 33
0.0
210
0.0
220
0.0
230
1.0
  0
SOLID
  5
65C
330
5EA
100
AcDbEntity
  8
HATCH
  6
CONTINUOUS
 62
     1
100
AcDbTrace
 10
2298.328433642153
 20
2663.828429643841
 30
0.0
 11
2189.500006517408
 21
2661.000002519095
 31
0.0
 12
2299.500006517407
 22
2661.000002519095
 32
0.0
 13
2299.500006517407
 23
2661.000002519095
 33
0.0
210
0.0
220
0.0
230
1.0
  0
SOLID
  5
65D
330
5EA
100
AcDbEntity
  8
HATCH
  6
CONTINUOUS
 62
     1
100
AcDbTrace
 10
1486.671579392661
 20
2663.828429643841
 30
0.0
 11
1485.500006517407
 21
2661.000002519095
 31
0.0
 12
1594.328433642152
 22
2663.82842964384
 32
0.0
 13
1594.328433642152
 23
2663.82842964384
 33
0.0
  0
SOLID
  5
65E
330
5EA
100
AcDbEntity
  8
HATCH
  6
CONTINUOUS
 62
     1
100
AcDbTrace
 10
2190.671579392661
 20
2663.828429643842
 30
0.0
 11
2189.500006517408
 21
2661.000002519095
 31
0.0
 12
2298.328433642153
 22
2663.828429643841
 32
0.0
 13
2298.328433642153
 23
2663.828429643841
 33
0.0
  0
SOLID
  5
65F
330
5EA
100
AcDbEntity
  8
HATCH
  6
CONTINUOUS
 62
     1
100
AcDbTrace
 10
1591.500006517406
 20
2665.000002519093
 30
0.0
 11
1486.671579392661
 21
2663.828429643841
 31
0.0
 12
1594.328433642152
 22
2663.82842964384
 32
0.0
 13
1594.328433642152
 23
2663.82842964384
 33
0.0
210
0.0
220
0.0
230
1.0
  0
SOLID
  5
660
330
5EA
100
AcDbEntity
  8
HATCH
  6
CONTINUOUS
 62
     1
100
AcDbTrace
 10
1489.500006517407
 20
2665.000002519095
 30
0.0
 11
1486.671579392661
 21
2663.828429643841
 31
0.0
 12
1591.500006517406
 22
2665.000002519093
 32
0.0
 13
1591.500006517406
 23
2665.000002519093
 33
0.0
210
0.0
220
0.0
230
1.0
  0
SOLID
  5
661
330
5EA
100
AcDbEntity
  8
HATCH
  6
CONTINUOUS
 62
     1
100
AcDbTrace
 10
2295.500006517407
 20
2665.000002519095
 30
0.0
 11
2190.671579392661
 21
2663.828429643842
 31
0.0
 12
2298.328433642153
 22
2663.828429643841
 32
0.0
 13
2298.328433642153
 23
2663.828429643841
 33
0.0
210
0.0
220
0.0
230
1.0
  0
SOLID
  5
662
330
5EA
100
AcDbEntity
  8
HATCH
  6
CONTINUOUS
 62
     1
100
AcDbTrace
 10
2193.500006517408
 20
2665.000002519096
 30
0.0
 11
2190.671579392661
 21
2663.828429643842
 31
0.0
 12
2295.500006517407
 22
2665.000002519095
 32
0.0
 13
2295.500006517407
 23
2665.000002519095
 33
0.0
210
0.0
220
0.0
230
1.0
  0
SOLID
  5
663
330
5EA
100
AcDbEntity
  8
HATCH
  6
CONTINUOUS
 62
     1
100
AcDbTrace
 10
1594.328433642155
 20
3556.171575394349
 30
0.0
 11
1489.500006517407
 21
3555.000002519094
 31
0.0
 12
1591.500006517409
 22
3555.000002519094
 32
0.0
 13
1591.500006517409
 23
3555.000002519094
 33
0.0
210
0.0
220
0.0
230
1.0
  0
SOLID
  5
664
330
5EA
100
AcDbEntity
  8
HATCH
  6
CONTINUOUS
 62
     1
100
AcDbTrace
 10
1486.671579392661
 20
3556.171575394349
 30
0.0
 11
1489.500006517407
 21
3555.000002519094
 31
0.0
 12
1594.328433642155
 22
3556.171575394349
 32
0.0
 13
1594.328433642155
 23
3556.171575394349
 33
0.0
210
0.0
220
0.0
230
1.0
  0
SOLID
  5
665
330
5EA
100
AcDbEntity
  8
HATCH
  6
CONTINUOUS
 62
     1
100
AcDbTrace
 10
2298.328433642156
 20
3556.171575394349
 30
0.0
 11
2193.500006517408
 21
3555.000002519096
 31
0.0
 12
2295.50000651741
 22
3555.000002519096
 32
0.0
 13
2295.50000651741
 23
3555.000002519096
 33
0.0
210
0.0
220
0.0
230
1.0
  0
SOLID
  5
666
330
5EA
100
AcDbEntity
  8
HATCH
  6
CONTINUOUS
 62
     1
100
AcDbTrace
 10
2190.671579392661
 20
3556.171575394349
 30
0.0
 11
2193.500006517408
 21
3555.000002519096
 31
0.0
 12
2298.328433642156
 22
3556.171575394349
 32
0.0
 13
2298.328433642156
 23
3556.171575394349
 33
0.0
210
0.0
220
0.0
230
1.0
  0
SOLID
  5
667
330
5EA
100
AcDbEntity
  8
HATCH
  6
CONTINUOUS
 62
     1
100
AcDbTrace
 10
1595.500006517409
 20
3559.000002519094
 30
0.0
 11
1486.671579392661
 21
3556.171575394349
 31
0.0
 12
1594.328433642155
 22
3556.171575394349
 32
0.0
 13
1594.328433642155
 23
3556.171575394349
 33
0.0
210
0.0
220
0.0
230
1.0
  0
SOLID
  5
668
330
5EA
100
AcDbEntity
  8
HATCH
  6
CONTINUOUS
 62
     1
100
AcDbTrace
 10
1485.500006517407
 20
3559.000002519094
 30
0.0
 11
1486.671579392661
 21
3556.171575394349
 31
0.0
 12
1595.500006517409
 22
3559.000002519094
 32
0.0
 13
1595.500006517409
 23
3559.000002519094
 33
0.0
210
0.0
220
0.0
230
1.0
  0
SOLID
  5
669
330
5EA
100
AcDbEntity
  8
HATCH
  6
CONTINUOUS
 62
     1
100
AcDbTrace
 10
2299.50000651741
 20
3559.000002519096
 30
0.0
 11
2190.671579392661
 21
3556.171575394349
 31
0.0
 12
2298.328433642156
 22
3556.171575394349
 32
0.0
 13
2298.328433642156
 23
3556.171575394349
 33
0.0
210
0.0
220
0.0
230
1.0
  0
SOLID
  5
66A
330
5EA
100
AcDbEntity
  8
HATCH
  6
CONTINUOUS
 62
     1
100
AcDbTrace
 10
2189.500006517408
 20
3559.000002519096
 30
0.0
 11
2190.671579392661
 21
3556.171575394349
 31
0.0
 12
2299.50000651741
 22
3559.000002519096
 32
0.0
 13
2299.50000651741
 23
3559.000002519096
 33
0.0
210
0.0
220
0.0
230
1.0
  0
SOLID
  5
66B
330
5EA
100
AcDbEntity
  8
HATCH
  6
CONTINUOUS
 62
     1
100
AcDbTrace
 10
1570.500006517409
 20
3566.000002519094
 30
0.0
 11
1485.500006517407
 21
3559.000002519094
 31
0.0
 12
1595.500006517409
 22
3559.000002519094
 32
0.0
 13
1595.500006517409
 23
3559.000002519094
 33
0.0
210
0.0
220
0.0
230
1.0
  0
SOLID
  5
66C
330
5EA
100
AcDbEntity
  8
HATCH
  6
CONTINUOUS
 62
     1
100
AcDbTrace
 10
2274.50000651741
 20
3566.000002519096
 30
0.0
 11
2189.500006517408
 21
3559.000002519096
 31
0.0
 12
2299.50000651741
 22
3559.000002519096
 32
0.0
 13
2299.50000651741
 23
3559.000002519096
 33
0.0
210
0.0
220
0.0
230
1.0
  0
SOLID
  5
66D
330
5EA
100
AcDbEntity
  8
HATCH
  6
CONTINUOUS
 62
     1
100
AcDbTrace
 10
1560.600511580798
 20
3570.100507582483
 30
0.0
 11
1485.500006517407
 21
3559.000002519094
 31
0.0
 12
1570.500006517409
 22
3566.000002519094
 32
0.0
 13
1570.500006517409
 23
3566.000002519094
 33
0.0
210
0.0
220
0.0
230
1.0
  0
SOLID
  5
66E
330
5EA
100
AcDbEntity
  8
HATCH
  6
CONTINUOUS
 62
     1
100
AcDbTrace
 10
1580.399501454021
 20
3570.100507582483
 30
0.0
 11
1570.500006517409
 21
3566.000002519094
 31
0.0
 12
1595.500006517409
 22
3559.000002519094
 32
0.0
 13
1595.500006517409
 23
3559.000002519094
 33
0.0
210
0.0
220
0.0
230
1.0
  0
SOLID
  5
66F
330
5EA
100
AcDbEntity
  8
HATCH
  6
CONTINUOUS
 62
     1
100
AcDbTrace
 10
2264.600511580799
 20
3570.100507582484
 30
0.0
 11
2189.500006517408
 21
3559.000002519096
 31
0.0
 12
2274.50000651741
 22
3566.000002519096
 32
0.0
 13
2274.50000651741
 23
3566.000002519096
 33
0.0
210
0.0
220
0.0
230
1.0
  0
SOLID
  5
670
330
5EA
100
AcDbEntity
  8
HATCH
  6
CONTINUOUS
 62
     1
100
AcDbTrace
 10
2284.399501454022
 20
3570.100507582484
 30
0.0
 11
2274.50000651741
 21
3566.000002519096
 31
0.0
 12
2299.50000651741
 22
3559.000002519096
 32
0.0
 13
2299.50000651741
 23
3559.000002519096
 33
0.0
210
0.0
220
0.0
230
1.0
  0
SOLID
  5
671
330
5EA
100
AcDbEntity
  8
HATCH
  6
CONTINUOUS
 62
     1
100
AcDbTrace
 10
1556.50000651741
 20
3580.000002519094
 30
0.0
 11
1485.500006517407
 21
3559.000002519094
 31
0.0
 12
1560.600511580798
 22
3570.100507582483
 32
0.0
 13
1560.600511580798
 23
3570.100507582483
 33
0.0
210
0.0
220
0.0
230
1.0
  0
SOLID
  5
672
330
5EA
100
AcDbEntity
  8
HATCH
  6
CONTINUOUS
 62
     1
100
AcDbTrace
 10
1584.500006517409
 20
3580.000002519094
 30
0.0
 11
1580.399501454021
 21
3570.100507582483
 31
0.0
 12
1595.500006517409
 22
3559.000002519094
 32
0.0
 13
1595.500006517409
 23
3559.000002519094
 33
0.0
210
0.0
220
0.0
230
1.0
  0
SOLID
  5
673
330
5EA
100
AcDbEntity
  8
HATCH
  6
CONTINUOUS
 62
     1
100
AcDbTrace
 10
2260.500006517411
 20
3580.000002519096
 30
0.0
 11
2189.500006517408
 21
3559.000002519096
 31
0.0
 12
2264.600511580799
 22
3570.100507582484
 32
0.0
 13
2264.600511580799
 23
3570.100507582484
 33
0.0
210
0.0
220
0.0
230
1.0
  0
SOLID
  5
674
330
5EA
100
AcDbEntity
  8
HATCH
  6
CONTINUOUS
 62
     1
100
AcDbTrace
 10
2288.500006517411
 20
3580.000002519096
 30
0.0
 11
2284.399501454022
 21
3570.100507582484
 31
0.0
 12
2299.50000651741
 22
3559.000002519096
 32
0.0
 13
2299.50000651741
 23
3559.000002519096
 33
0.0
210
0.0
220
0.0
230
1.0
  0
SOLID
  5
675
330
5EA
100
AcDbEntity
  8
HATCH
  6
CONTINUOUS
 62
     1
100
AcDbTrace
 10
1560.600511580798
 20
3589.899497455706
 30
0.0
 11
1485.500006517407
 21
3559.000002519094
 31
0.0
 12
1556.50000651741
 22
3580.000002519094
 32
0.0
 13
1556.50000651741
 23
3580.000002519094
 33
0.0
210
0.0
220
0.0
230
1.0
  0
SOLID
  5
676
330
5EA
100
AcDbEntity
  8
HATCH
  6
CONTINUOUS
 62
     1
100
AcDbTrace
 10
1580.399501454021
 20
3589.899497455706
 30
0.0
 11
1584.500006517409
 21
3580.000002519094
 31
0.0
 12
1595.500006517409
 22
3559.000002519094
 32
0.0
 13
1595.500006517409
 23
3559.000002519094
 33
0.0
  0
SOLID
  5
677
330
5EA
100
AcDbEntity
  8
HATCH
  6
CONTINUOUS
 62
     1
100
AcDbTrace
 10
2264.600511580799
 20
3589.899497455707
 30
0.0
 11
2189.500006517408
 21
3559.000002519096
 31
0.0
 12
2260.500006517411
 22
3580.000002519096
 32
0.0
 13
2260.500006517411
 23
3580.000002519096
 33
0.0
210
0.0
220
0.0
230
1.0
  0
SOLID
  5
678
330
5EA
100
AcDbEntity
  8
HATCH
  6
CONTINUOUS
 62
     1
100
AcDbTrace
 10
2284.399501454022
 20
3589.899497455707
 30
0.0
 11
2288.500006517411
 21
3580.000002519096
 31
0.0
 12
2299.50000651741
 22
3559.000002519096
 32
0.0
 13
2299.50000651741
 23
3559.000002519096
 33
0.0
210
0.0
220
0.0
230
1.0
  0
SOLID
  5
679
330
5EA
100
AcDbEntity
  8
HATCH
  6
CONTINUOUS
 62
     1
100
AcDbTrace
 10
1570.500006517409
 20
3594.000002519095
 30
0.0
 11
1485.500006517407
 21
3559.000002519094
 31
0.0
 12
1560.600511580798
 22
3589.899497455706
 32
0.0
 13
1560.600511580798
 23
3589.899497455706
 33
0.0
210
0.0
220
0.0
230
1.0
  0
SOLID
  5
67A
330
5EA
100
AcDbEntity
  8
HATCH
  6
CONTINUOUS
 62
     1
100
AcDbTrace
 10
2274.50000651741
 20
3594.000002519095
 30
0.0
 11
2189.500006517408
 21
3559.000002519096
 31
0.0
 12
2264.600511580799
 22
3589.899497455707
 32
0.0
 13
2264.600511580799
 23
3589.899497455707
 33
0.0
210
0.0
220
0.0
230
1.0
  0
SOLID
  5
67B
330
5EA
100
AcDbEntity
  8
HATCH
  6
CONTINUOUS
 62
     1
100
AcDbTrace
 10
1510.500006517406
 20
3626.000002519094
 30
0.0
 11
1570.500006517409
 21
3594.000002519095
 31
0.0
 12
1580.399501454021
 22
3589.899497455706
 32
0.0
 13
1580.399501454021
 23
3589.899497455706
 33
0.0
210
0.0
220
0.0
230
1.0
  0
SOLID
  5
67C
330
5EA
100
AcDbEntity
  8
HATCH
  6
CONTINUOUS
 62
     1
100
AcDbTrace
 10
1510.500006517406
 20
3626.000002519094
 30
0.0
 11
1485.500006517407
 21
3559.000002519094
 31
0.0
 12
1570.500006517409
 22
3594.000002519095
 32
0.0
 13
1570.500006517409
 23
3594.000002519095
 33
0.0
210
0.0
220
0.0
230
1.0
  0
SOLID
  5
67D
330
5EA
100
AcDbEntity
  8
HATCH
  6
CONTINUOUS
 62
     1
100
AcDbTrace
 10
2214.500006517407
 20
3626.000002519095
 30
0.0
 11
2274.50000651741
 21
3594.000002519095
 31
0.0
 12
2284.399501454022
 22
3589.899497455707
 32
0.0
 13
2284.399501454022
 23
3589.899497455707
 33
0.0
210
0.0
220
0.0
230
1.0
  0
SOLID
  5
67E
330
5EA
100
AcDbEntity
  8
HATCH
  6
CONTINUOUS
 62
     1
100
AcDbTrace
 10
2214.500006517407
 20
3626.000002519095
 30
0.0
 11
2189.500006517408
 21
3559.000002519096
 31
0.0
 12
2274.50000651741
 22
3594.000002519095
 32
0.0
 13
2274.50000651741
 23
3594.000002519095
 33
0.0
210
0.0
220
0.0
230
1.0
  0
SOLID
  5
67F
330
5EA
100
AcDbEntity
  8
HATCH
  6
CONTINUOUS
 62
     1
100
AcDbTrace
 10
1500.600511580794
 20
3630.100507582482
 30
0.0
 11
1485.500006517407
 21
3559.000002519094
 31
0.0
 12
1510.500006517406
 22
3626.000002519094
 32
0.0
 13
1510.500006517406
 23
3626.000002519094
 33
0.0
210
0.0
220
0.0
230
1.0
  0
SOLID
  5
680
330
5EA
100
AcDbEntity
  8
HATCH
  6
CONTINUOUS
 62
     1
100
AcDbTrace
 10
1520.399501454018
 20
3630.100507582482
 30
0.0
 11
1510.500006517406
 21
3626.000002519094
 31
0.0
 12
1580.399501454021
 22
3589.899497455706
 32
0.0
 13
1580.399501454021
 23
3589.899497455706
 33
0.0
  0
SOLID
  5
681
330
5EA
100
AcDbEntity
  8
HATCH
  6
CONTINUOUS
 62
     1
100
AcDbTrace
 10
2204.600511580796
 20
3630.100507582483
 30
0.0
 11
2189.500006517408
 21
3559.000002519096
 31
0.0
 12
2214.500006517407
 22
3626.000002519095
 32
0.0
 13
2214.500006517407
 23
3626.000002519095
 33
0.0
210
0.0
220
0.0
230
1.0
  0
SOLID
  5
682
330
5EA
100
AcDbEntity
  8
HATCH
  6
CONTINUOUS
 62
     1
100
AcDbTrace
 10
2224.399501454018
 20
3630.100507582483
 30
0.0
 11
2214.500006517407
 21
3626.000002519095
 31
0.0
 12
2284.399501454022
 22
3589.899497455707
 32
0.0
 13
2284.399501454022
 23
3589.899497455707
 33
0.0
210
0.0
220
0.0
230
1.0
  0
SOLID
  5
683
330
5EA
100
AcDbEntity
  8
HATCH
  6
CONTINUOUS
 62
     1
100
AcDbTrace
 10
1496.500006517406
 20
3640.000002519094
 30
0.0
 11
1485.500006517407
 21
3559.000002519094
 31
0.0
 12
1500.600511580794
 22
3630.100507582482
 32
0.0
 13
1500.600511580794
 23
3630.100507582482
 33
0.0
210
0.0
220
0.0
230
1.0
  0
SOLID
  5
684
330
5EA
100
AcDbEntity
  8
HATCH
  6
CONTINUOUS
 62
     1
100
AcDbTrace
 10
1524.500006517406
 20
3640.000002519094
 30
0.0
 11
1520.399501454018
 21
3630.100507582482
 31
0.0
 12
1580.399501454021
 22
3589.899497455706
 32
0.0
 13
1580.399501454021
 23
3589.899497455706
 33
0.0
210
0.0
220
0.0
230
1.0
  0
SOLID
  5
685
330
5EA
100
AcDbEntity
  8
HATCH
  6
CONTINUOUS
 62
     1
100
AcDbTrace
 10
2200.500006517407
 20
3640.000002519094
 30
0.0
 11
2189.500006517408
 21
3559.000002519096
 31
0.0
 12
2204.600511580796
 22
3630.100507582483
 32
0.0
 13
2204.600511580796
 23
3630.100507582483
 33
0.0
210
0.0
220
0.0
230
1.0
  0
SOLID
  5
686
330
5EA
100
AcDbEntity
  8
HATCH
  6
CONTINUOUS
 62
     1
100
AcDbTrace
 10
2228.500006517406
 20
3640.000002519094
 30
0.0
 11
2224.399501454018
 21
3630.100507582483
 31
0.0
 12
2284.399501454022
 22
3589.899497455707
 32
0.0
 13
2284.399501454022
 23
3589.899497455707
 33
0.0
210
0.0
220
0.0
230
1.0
  0
SOLID
  5
687
330
5EA
100
AcDbEntity
  8
HATCH
  6
CONTINUOUS
 62
     1
100
AcDbTrace
 10
1520.399501454018
 20
3649.899497455705
 30
0.0
 11
1524.500006517406
 21
3640.000002519094
 31
0.0
 12
1580.399501454021
 22
3589.899497455706
 32
0.0
 13
1580.399501454021
 23
3589.899497455706
 33
0.0
210
0.0
220
0.0
230
1.0
  0
SOLID
  5
688
330
5EA
100
AcDbEntity
  8
HATCH
  6
CONTINUOUS
 62
     1
100
AcDbTrace
 10
2224.399501454018
 20
3649.899497455706
 30
0.0
 11
2228.500006517406
 21
3640.000002519094
 31
0.0
 12
2284.399501454022
 22
3589.899497455707
 32
0.0
 13
2284.399501454022
 23
3589.899497455707
 33
0.0
  0
SOLID
  5
689
330
5EA
100
AcDbEntity
  8
HATCH
  6
CONTINUOUS
 62
     1
100
AcDbTrace
 10
1595.500006517406
 20
3661.000002519094
 30
0.0
 11
1510.500006517406
 21
3654.000002519094
 31
0.0
 12
1520.399501454018
 22
3649.899497455705
 32
0.0
 13
1520.399501454018
 23
3649.899497455705
 33
0.0
210
0.0
220
0.0
230
1.0
  0
SOLID
  5
68A
330
5EA
100
AcDbEntity
  8
HATCH
  6
CONTINUOUS
 62
     1
100
AcDbTrace
 10
1595.500006517406
 20
3661.000002519094
 30
0.0
 11
1520.399501454018
 21
3649.899497455705
 31
0.0
 12
1580.399501454021
 22
3589.899497455706
 32
0.0
 13
1580.399501454021
 23
3589.899497455706
 33
0.0
210
0.0
220
0.0
230
1.0
  0
SOLID
  5
68B
330
5EA
100
AcDbEntity
  8
HATCH
  6
CONTINUOUS
 62
     1
100
AcDbTrace
 10
1595.500006517406
 20
3661.000002519094
 30
0.0
 11
1580.399501454021
 21
3589.899497455706
 31
0.0
 12
1595.500006517409
 22
3559.000002519094
 32
0.0
 13
1595.500006517409
 23
3559.000002519094
 33
0.0
  0
SOLID
  5
68C
330
5EA
100
AcDbEntity
  8
HATCH
  6
CONTINUOUS
 62
     1
100
AcDbTrace
 10
2299.500006517407
 20
3661.000002519095
 30
0.0
 11
2214.500006517407
 21
3654.000002519095
 31
0.0
 12
2224.399501454018
 22
3649.899497455706
 32
0.0
 13
2224.399501454018
 23
3649.899497455706
 33
0.0
210
0.0
220
0.0
230
1.0
  0
SOLID
  5
68D
330
5EA
100
AcDbEntity
  8
HATCH
  6
CONTINUOUS
 62
     1
100
AcDbTrace
 10
2299.500006517407
 20
3661.000002519095
 30
0.0
 11
2224.399501454018
 21
3649.899497455706
 31
0.0
 12
2284.399501454022
 22
3589.899497455707
 32
0.0
 13
2284.399501454022
 23
3589.899497455707
 33
0.0
210
0.0
220
0.0
230
1.0
  0
SOLID
  5
68E
330
5EA
100
AcDbEntity
  8
HATCH
  6
CONTINUOUS
 62
     1
100
AcDbTrace
 10
2299.500006517407
 20
3661.000002519095
 30
0.0
 11
2284.399501454022
 21
3589.899497455707
 31
0.0
 12
2299.50000651741
 22
3559.000002519096
 32
0.0
 13
2299.50000651741
 23
3559.000002519096
 33
0.0
210
0.0
220
0.0
230
1.0
  0
SOLID
  5
68F
330
5EA
100
AcDbEntity
  8
HATCH
  6
CONTINUOUS
 62
     1
100
AcDbTrace
 10
1485.500006517407
 20
3661.000002519095
 30
0.0
 11
1510.500006517406
 21
3654.000002519094
 31
0.0
 12
1595.500006517406
 22
3661.000002519094
 32
0.0
 13
1595.500006517406
 23
3661.000002519094
 33
0.0
  0
SOLID
  5
690
330
5EA
100
AcDbEntity
  8
HATCH
  6
CONTINUOUS
 62
     1
100
AcDbTrace
 10
1485.500006517407
 20
3661.000002519095
 30
0.0
 11
1500.600511580794
 21
3649.899497455705
 31
0.0
 12
1510.500006517406
 22
3654.000002519094
 32
0.0
 13
1510.500006517406
 23
3654.000002519094
 33
0.0
  0
SOLID
  5
691
330
5EA
100
AcDbEntity
  8
HATCH
  6
CONTINUOUS
 62
     1
100
AcDbTrace
 10
1485.500006517407
 20
3661.000002519095
 30
0.0
 11
1496.500006517406
 21
3640.000002519094
 31
0.0
 12
1500.600511580794
 22
3649.899497455705
 32
0.0
 13
1500.600511580794
 23
3649.899497455705
 33
0.0
210
0.0
220
0.0
230
1.0
  0
SOLID
  5
692
330
5EA
100
AcDbEntity
  8
HATCH
  6
CONTINUOUS
 62
     1
100
AcDbTrace
 10
1485.500006517407
 20
3661.000002519095
 30
0.0
 11
1485.500006517407
 21
3559.000002519094
 31
0.0
 12
1496.500006517406
 22
3640.000002519094
 32
0.0
 13
1496.500006517406
 23
3640.000002519094
 33
0.0
210
0.0
220
0.0
230
1.0
  0
SOLID
  5
693
330
5EA
100
AcDbEntity
  8
HATCH
  6
CONTINUOUS
 62
     1
100
AcDbTrace
 10
2189.500006517408
 20
3661.000002519095
 30
0.0
 11
2214.500006517407
 21
3654.000002519095
 31
0.0
 12
2299.500006517407
 22
3661.000002519095
 32
0.0
 13
2299.500006517407
 23
3661.000002519095
 33
0.0
  0
SOLID
  5
694
330
5EA
100
AcDbEntity
  8
HATCH
  6
CONTINUOUS
 62
     1
100
AcDbTrace
 10
2189.500006517408
 20
3661.000002519095
 30
0.0
 11
2204.600511580796
 21
3649.899497455706
 31
0.0
 12
2214.500006517407
 22
3654.000002519095
 32
0.0
 13
2214.500006517407
 23
3654.000002519095
 33
0.0
210
0.0
220
0.0
230
1.0
  0
SOLID
  5
695
330
5EA
100
AcDbEntity
  8
HATCH
  6
CONTINUOUS
 62
     1
100
AcDbTrace
 10
2189.500006517408
 20
3661.000002519095
 30
0.0
 11
2200.500006517407
 21
3640.000002519094
 31
0.0
 12
2204.600511580796
 22
3649.899497455706
 32
0.0
 13
2204.600511580796
 23
3649.899497455706
 33
0.0
210
0.0
220
0.0
230
1.0
  0
SOLID
  5
696
330
5EA
100
AcDbEntity
  8
HATCH
  6
CONTINUOUS
 62
     1
100
AcDbTrace
 10
2189.500006517408
 20
3661.000002519095
 30
0.0
 11
2189.500006517408
 21
3559.000002519096
 31
0.0
 12
2200.500006517407
 22
3640.000002519094
 32
0.0
 13
2200.500006517407
 23
3640.000002519094
 33
0.0
210
0.0
220
0.0
230
1.0
  0
SOLID
  5
697
330
5EA
100
AcDbEntity
  8
HATCH
  6
CONTINUOUS
 62
     1
100
AcDbTrace
 10
1594.328433642152
 20
3663.82842964384
 30
0.0
 11
1485.500006517407
 21
3661.000002519095
 31
0.0
 12
1595.500006517406
 22
3661.000002519094
 32
0.0
 13
1595.500006517406
 23
3661.000002519094
 33
0.0
210
0.0
220
0.0
230
1.0
  0
SOLID
  5
698
330
5EA
100
AcDbEntity
  8
HATCH
  6
CONTINUOUS
 62
     1
100
AcDbTrace
 10
2298.328433642153
 20
3663.828429643841
 30
0.0
 11
2189.500006517408
 21
3661.000002519095
 31
0.0
 12
2299.500006517407
 22
3661.000002519095
 32
0.0
 13
2299.500006517407
 23
3661.000002519095
 33
0.0
210
0.0
220
0.0
230
1.0
  0
SOLID
  5
699
330
5EA
100
AcDbEntity
  8
HATCH
  6
CONTINUOUS
 62
     1
100
AcDbTrace
 10
1486.671579392661
 20
3663.828429643841
 30
0.0
 11
1485.500006517407
 21
3661.000002519095
 31
0.0
 12
1594.328433642152
 22
3663.82842964384
 32
0.0
 13
1594.328433642152
 23
3663.82842964384
 33
0.0
  0
SOLID
  5
69A
330
5EA
100
AcDbEntity
  8
HATCH
  6
CONTINUOUS
 62
     1
100
AcDbTrace
 10
2190.671579392661
 20
3663.828429643842
 30
0.0
 11
2189.500006517408
 21
3661.000002519095
 31
0.0
 12
2298.328433642153
 22
3663.828429643841
 32
0.0
 13
2298.328433642153
 23
3663.828429643841
 33
0.0
  0
SOLID
  5
69B
330
5EA
100
AcDbEntity
  8
HATCH
  6
CONTINUOUS
 62
     1
100
AcDbTrace
 10
1591.500006517406
 20
3665.000002519094
 30
0.0
 11
1486.671579392661
 21
3663.828429643841
 31
0.0
 12
1594.328433642152
 22
3663.82842964384
 32
0.0
 13
1594.328433642152
 23
3663.82842964384
 33
0.0
210
0.0
220
0.0
230
1.0
  0
SOLID
  5
69C
330
5EA
100
AcDbEntity
  8
HATCH
  6
CONTINUOUS
 62
     1
100
AcDbTrace
 10
1489.500006517407
 20
3665.000002519095
 30
0.0
 11
1486.671579392661
 21
3663.828429643841
 31
0.0
 12
1591.500006517406
 22
3665.000002519094
 32
0.0
 13
1591.500006517406
 23
3665.000002519094
 33
0.0
210
0.0
220
0.0
230
1.0
  0
SOLID
  5
69D
330
5EA
100
AcDbEntity
  8
HATCH
  6
CONTINUOUS
 62
     1
100
AcDbTrace
 10
2295.500006517407
 20
3665.000002519095
 30
0.0
 11
2190.671579392661
 21
3663.828429643842
 31
0.0
 12
2298.328433642153
 22
3663.828429643841
 32
0.0
 13
2298.328433642153
 23
3663.828429643841
 33
0.0
210
0.0
220
0.0
230
1.0
  0
SOLID
  5
69E
330
5EA
100
AcDbEntity
  8
HATCH
  6
CONTINUOUS
 62
     1
100
AcDbTrace
 10
2193.500006517408
 20
3665.000002519095
 30
0.0
 11
2190.671579392661
 21
3663.828429643842
 31
0.0
 12
2295.500006517407
 22
3665.000002519095
 32
0.0
 13
2295.500006517407
 23
3665.000002519095
 33
0.0
210
0.0
220
0.0
230
1.0
  0
SOLID
  5
69F
330
5EA
100
AcDbEntity
  8
HATCH
  6
CONTINUOUS
 62
     1
100
AcDbTrace
 10
1589.000006517408
 20
1555.000002519093
 30
0.0
 11
1589.000006517408
 21
1503.000002519093
 31
0.0
 12
1614.000006517408
 22
1503.000002519093
 32
0.0
 13
1614.000006517408
 23
1503.000002519093
 33
0.0
210
0.0
220
0.0
230
1.0
  0
SOLID
  5
6A0
330
5EA
100
AcDbEntity
  8
HATCH
  6
CONTINUOUS
 62
     1
100
AcDbTrace
 10
1614.000006517408
 20
1503.000002519093
 30
0.0
 11
1591.500006517409
 21
1555.000002519093
 31
0.0
 12
1589.000006517408
 22
1555.000002519093
 32
0.0
 13
1589.000006517408
 23
1555.000002519093
 33
0.0
210
0.0
220
0.0
230
1.0
  0
SOLID
  5
6A1
330
5EA
100
AcDbEntity
  8
HATCH
  6
CONTINUOUS
 62
     1
100
AcDbTrace
 10
2196.000006517408
 20
1555.000002519094
 30
0.0
 11
2171.000006517407
 21
1503.000002519093
 31
0.0
 12
2196.000006517408
 22
1503.000002519092
 32
0.0
 13
2196.000006517408
 23
1503.000002519092
 33
0.0
210
0.0
220
0.0
230
1.0
  0
SOLID
  5
6A2
330
5EA
100
AcDbEntity
  8
HATCH
  6
CONTINUOUS
 62
     1
100
AcDbTrace
 10
2171.000006517407
 20
1503.000002519093
 30
0.0
 11
2196.000006517408
 21
1555.000002519094
 31
0.0
 12
2193.500006517408
 22
1555.000002519094
 32
0.0
 13
2193.500006517408
 23
1555.000002519094
 33
0.0
210
0.0
220
0.0
230
1.0
  0
SOLID
  5
6A3
330
5EA
100
AcDbEntity
  8
HATCH
  6
CONTINUOUS
 62
     1
100
AcDbTrace
 10
1594.328433642155
 20
1556.171575394347
 30
0.0
 11
1591.500006517409
 21
1555.000002519093
 31
0.0
 12
1614.000006517408
 22
1503.000002519093
 32
0.0
 13
1614.000006517408
 23
1503.000002519093
 33
0.0
210
0.0
220
0.0
230
1.0
  0
SOLID
  5
6A4
330
5EA
100
AcDbEntity
  8
HATCH
  6
CONTINUOUS
 62
     1
100
AcDbTrace
 10
2190.671579392661
 20
1556.171575394348
 30
0.0
 11
2171.000006517407
 21
1503.000002519093
 31
0.0
 12
2193.500006517408
 22
1555.000002519094
 32
0.0
 13
2193.500006517408
 23
1555.000002519094
 33
0.0
210
0.0
220
0.0
230
1.0
  0
SOLID
  5
6A5
330
5EA
100
AcDbEntity
  8
HATCH
  6
CONTINUOUS
 62
     1
100
AcDbTrace
 10
1595.500006517409
 20
1559.000002519093
 30
0.0
 11
1594.328433642155
 21
1556.171575394347
 31
0.0
 12
1614.000006517408
 22
1503.000002519093
 32
0.0
 13
1614.000006517408
 23
1503.000002519093
 33
0.0
210
0.0
220
0.0
230
1.0
  0
SOLID
  5
6A6
330
5EA
100
AcDbEntity
  8
HATCH
  6
CONTINUOUS
 62
     1
100
AcDbTrace
 10
2189.500006517408
 20
1559.000002519094
 30
0.0
 11
2171.000006517407
 21
1503.000002519093
 31
0.0
 12
2190.671579392661
 22
1556.171575394348
 32
0.0
 13
2190.671579392661
 23
1556.171575394348
 33
0.0
210
0.0
220
0.0
230
1.0
  0
SOLID
  5
6A7
330
5EA
100
AcDbEntity
  8
HATCH
  6
CONTINUOUS
 62
     1
100
AcDbTrace
 10
1595.500006517406
 20
1661.000002519093
 30
0.0
 11
1595.500006517409
 21
1559.000002519093
 31
0.0
 12
1614.000006517408
 22
1503.000002519093
 32
0.0
 13
1614.000006517408
 23
1503.000002519093
 33
0.0
  0
SOLID
  5
6A8
330
5EA
100
AcDbEntity
  8
HATCH
  6
CONTINUOUS
 62
     1
100
AcDbTrace
 10
2189.500006517408
 20
1661.000002519094
 30
0.0
 11
2171.000006517407
 21
1503.000002519093
 31
0.0
 12
2189.500006517408
 22
1559.000002519094
 32
0.0
 13
2189.500006517408
 23
1559.000002519094
 33
0.0
210
0.0
220
0.0
230
1.0
  0
SOLID
  5
6A9
330
5EA
100
AcDbEntity
  8
HATCH
  6
CONTINUOUS
 62
     1
100
AcDbTrace
 10
1589.000006517408
 20
2555.000002519094
 30
0.0
 11
1589.000006517408
 21
1665.000002519093
 31
0.0
 12
1591.500006517406
 22
1665.000002519093
 32
0.0
 13
1591.500006517406
 23
1665.000002519093
 33
0.0
210
0.0
220
0.0
230
1.0
  0
SOLID
  5
6AA
330
5EA
100
AcDbEntity
  8
HATCH
  6
CONTINUOUS
 62
     1
100
AcDbTrace
 10
1589.000006517408
 20
2555.000002519094
 30
0.0
 11
1591.500006517406
 21
1665.000002519093
 31
0.0
 12
1594.328433642152
 22
1663.828429643839
 32
0.0
 13
1594.328433642152
 23
1663.828429643839
 33
0.0
210
0.0
220
0.0
230
1.0
  0
SOLID
  5
6AB
330
5EA
100
AcDbEntity
  8
HATCH
  6
CONTINUOUS
 62
     1
100
AcDbTrace
 10
1589.000006517408
 20
2555.000002519094
 30
0.0
 11
1594.328433642152
 21
1663.828429643839
 31
0.0
 12
1595.500006517406
 22
1661.000002519093
 32
0.0
 13
1595.500006517406
 23
1661.000002519093
 33
0.0
210
0.0
220
0.0
230
1.0
  0
SOLID
  5
6AC
330
5EA
100
AcDbEntity
  8
HATCH
  6
CONTINUOUS
 62
     1
100
AcDbTrace
 10
1589.000006517408
 20
2555.000002519094
 30
0.0
 11
1595.500006517406
 21
1661.000002519093
 31
0.0
 12
1614.000006517408
 22
1503.000002519093
 32
0.0
 13
1614.000006517408
 23
1503.000002519093
 33
0.0
  0
SOLID
  5
6AD
330
5EA
100
AcDbEntity
  8
HATCH
  6
CONTINUOUS
 62
     1
100
AcDbTrace
 10
1614.000006517408
 20
1503.000002519093
 30
0.0
 11
1591.500006517409
 21
2555.000002519094
 31
0.0
 12
1589.000006517408
 22
2555.000002519094
 32
0.0
 13
1589.000006517408
 23
2555.000002519094
 33
0.0
  0
SOLID
  5
6AE
330
5EA
100
AcDbEntity
  8
HATCH
  6
CONTINUOUS
 62
     1
100
AcDbTrace
 10
2196.000006517408
 20
2555.000002519095
 30
0.0
 11
2193.500006517408
 21
1665.000002519095
 31
0.0
 12
2196.000006517408
 22
1665.000002519095
 32
0.0
 13
2196.000006517408
 23
1665.000002519095
 33
0.0
210
0.0
220
0.0
230
1.0
  0
SOLID
  5
6AF
330
5EA
100
AcDbEntity
  8
HATCH
  6
CONTINUOUS
 62
     1
100
AcDbTrace
 10
2196.000006517408
 20
2555.000002519095
 30
0.0
 11
2190.671579392661
 21
1663.828429643841
 31
0.0
 12
2193.500006517408
 22
1665.000002519095
 32
0.0
 13
2193.500006517408
 23
1665.000002519095
 33
0.0
210
0.0
220
0.0
230
1.0
  0
SOLID
  5
6B0
330
5EA
100
AcDbEntity
  8
HATCH
  6
CONTINUOUS
 62
     1
100
AcDbTrace
 10
2196.000006517408
 20
2555.000002519095
 30
0.0
 11
2189.500006517408
 21
1661.000002519094
 31
0.0
 12
2190.671579392661
 22
1663.828429643841
 32
0.0
 13
2190.671579392661
 23
1663.828429643841
 33
0.0
  0
SOLID
  5
6B1
330
5EA
100
AcDbEntity
  8
HATCH
  6
CONTINUOUS
 62
     1
100
AcDbTrace
 10
2196.000006517408
 20
2555.000002519095
 30
0.0
 11
2171.000006517407
 21
1503.000002519093
 31
0.0
 12
2189.500006517408
 22
1661.000002519094
 32
0.0
 13
2189.500006517408
 23
1661.000002519094
 33
0.0
210
0.0
220
0.0
230
1.0
  0
SOLID
  5
6B2
330
5EA
100
AcDbEntity
  8
HATCH
  6
CONTINUOUS
 62
     1
100
AcDbTrace
 10
2171.000006517407
 20
1503.000002519093
 30
0.0
 11
2196.000006517408
 21
2555.000002519095
 31
0.0
 12
2193.500006517408
 22
2555.000002519095
 32
0.0
 13
2193.500006517408
 23
2555.000002519095
 33
0.0
210
0.0
220
0.0
230
1.0
  0
SOLID
  5
6B3
330
5EA
100
AcDbEntity
  8
HATCH
  6
CONTINUOUS
 62
     1
100
AcDbTrace
 10
1594.328433642155
 20
2556.171575394348
 30
0.0
 11
1591.500006517409
 21
2555.000002519094
 31
0.0
 12
1614.000006517408
 22
1503.000002519093
 32
0.0
 13
1614.000006517408
 23
1503.000002519093
 33
0.0
210
0.0
220
0.0
230
1.0
  0
SOLID
  5
6B4
330
5EA
100
AcDbEntity
  8
HATCH
  6
CONTINUOUS
 62
     1
100
AcDbTrace
 10
2190.671579392661
 20
2556.171575394349
 30
0.0
 11
2171.000006517407
 21
1503.000002519093
 31
0.0
 12
2193.500006517408
 22
2555.000002519095
 32
0.0
 13
2193.500006517408
 23
2555.000002519095
 33
0.0
210
0.0
220
0.0
230
1.0
  0
SOLID
  5
6B5
330
5EA
100
AcDbEntity
  8
HATCH
  6
CONTINUOUS
 62
     1
100
AcDbTrace
 10
1595.500006517409
 20
2559.000002519095
 30
0.0
 11
1594.328433642155
 21
2556.171575394348
 31
0.0
 12
1614.000006517408
 22
1503.000002519093
 32
0.0
 13
1614.000006517408
 23
1503.000002519093
 33
0.0
210
0.0
220
0.0
230
1.0
  0
SOLID
  5
6B6
330
5EA
100
AcDbEntity
  8
HATCH
  6
CONTINUOUS
 62
     1
100
AcDbTrace
 10
2189.500006517408
 20
2559.000002519095
 30
0.0
 11
2171.000006517407
 21
1503.000002519093
 31
0.0
 12
2190.671579392661
 22
2556.171575394349
 32
0.0
 13
2190.671579392661
 23
2556.171575394349
 33
0.0
210
0.0
220
0.0
230
1.0
  0
SOLID
  5
6B7
330
5EA
100
AcDbEntity
  8
HATCH
  6
CONTINUOUS
 62
     1
100
AcDbTrace
 10
1595.500006517406
 20
2661.000002519093
 30
0.0
 11
1595.500006517409
 21
2559.000002519095
 31
0.0
 12
1614.000006517408
 22
1503.000002519093
 32
0.0
 13
1614.000006517408
 23
1503.000002519093
 33
0.0
210
0.0
220
0.0
230
1.0
  0
SOLID
  5
6B8
330
5EA
100
AcDbEntity
  8
HATCH
  6
CONTINUOUS
 62
     1
100
AcDbTrace
 10
2189.500006517408
 20
2661.000002519095
 30
0.0
 11
2171.000006517407
 21
1503.000002519093
 31
0.0
 12
2189.500006517408
 22
2559.000002519095
 32
0.0
 13
2189.500006517408
 23
2559.000002519095
 33
0.0
210
0.0
220
0.0
230
1.0
  0
SOLID
  5
6B9
330
5EA
100
AcDbEntity
  8
HATCH
  6
CONTINUOUS
 62
     1
100
AcDbTrace
 10
1589.000006517408
 20
3555.000002519094
 30
0.0
 11
1589.000006517408
 21
2665.000002519093
 31
0.0
 12
1591.500006517406
 22
2665.000002519093
 32
0.0
 13
1591.500006517406
 23
2665.000002519093
 33
0.0
210
0.0
220
0.0
230
1.0
  0
SOLID
  5
6BA
330
5EA
100
AcDbEntity
  8
HATCH
  6
CONTINUOUS
 62
     1
100
AcDbTrace
 10
1589.000006517408
 20
3555.000002519094
 30
0.0
 11
1591.500006517406
 21
2665.000002519093
 31
0.0
 12
1594.328433642152
 22
2663.82842964384
 32
0.0
 13
1594.328433642152
 23
2663.82842964384
 33
0.0
210
0.0
220
0.0
230
1.0
  0
SOLID
  5
6BB
330
5EA
100
AcDbEntity
  8
HATCH
  6
CONTINUOUS
 62
     1
100
AcDbTrace
 10
1589.000006517408
 20
3555.000002519094
 30
0.0
 11
1594.328433642152
 21
2663.82842964384
 31
0.0
 12
1595.500006517406
 22
2661.000002519093
 32
0.0
 13
1595.500006517406
 23
2661.000002519093
 33
0.0
  0
SOLID
  5
6BC
330
5EA
100
AcDbEntity
  8
HATCH
  6
CONTINUOUS
 62
     1
100
AcDbTrace
 10
1589.000006517408
 20
3555.000002519094
 30
0.0
 11
1595.500006517406
 21
2661.000002519093
 31
0.0
 12
1614.000006517408
 22
1503.000002519093
 32
0.0
 13
1614.000006517408
 23
1503.000002519093
 33
0.0
210
0.0
220
0.0
230
1.0
  0
SOLID
  5
6BD
330
5EA
100
AcDbEntity
  8
HATCH
  6
CONTINUOUS
 62
     1
100
AcDbTrace
 10
1614.000006517408
 20
1503.000002519093
 30
0.0
 11
1591.500006517409
 21
3555.000002519094
 31
0.0
 12
1589.000006517408
 22
3555.000002519094
 32
0.0
 13
1589.000006517408
 23
3555.000002519094
 33
0.0
210
0.0
220
0.0
230
1.0
  0
SOLID
  5
6BE
330
5EA
100
AcDbEntity
  8
HATCH
  6
CONTINUOUS
 62
     1
100
AcDbTrace
 10
2196.000006517408
 20
3555.000002519096
 30
0.0
 11
2193.500006517408
 21
2665.000002519096
 31
0.0
 12
2196.000006517408
 22
2665.000002519095
 32
0.0
 13
2196.000006517408
 23
2665.000002519095
 33
0.0
210
0.0
220
0.0
230
1.0
  0
SOLID
  5
6BF
330
5EA
100
AcDbEntity
  8
HATCH
  6
CONTINUOUS
 62
     1
100
AcDbTrace
 10
2193.500006517408
 20
2665.000002519096
 30
0.0
 11
2196.000006517408
 21
3555.000002519096
 31
0.0
 12
2193.500006517408
 22
3555.000002519096
 32
0.0
 13
2193.500006517408
 23
3555.000002519096
 33
0.0
210
0.0
220
0.0
230
1.0
  0
SOLID
  5
6C0
330
5EA
100
AcDbEntity
  8
HATCH
  6
CONTINUOUS
 62
     1
100
AcDbTrace
 10
2193.500006517408
 20
3555.000002519096
 30
0.0
 11
2190.671579392661
 21
2663.828429643842
 31
0.0
 12
2193.500006517408
 22
2665.000002519096
 32
0.0
 13
2193.500006517408
 23
2665.000002519096
 33
0.0
210
0.0
220
0.0
230
1.0
  0
SOLID
  5
6C1
330
5EA
100
AcDbEntity
  8
HATCH
  6
CONTINUOUS
 62
     1
100
AcDbTrace
 10
2193.500006517408
 20
3555.000002519096
 30
0.0
 11
2189.500006517408
 21
2661.000002519095
 31
0.0
 12
2190.671579392661
 22
2663.828429643842
 32
0.0
 13
2190.671579392661
 23
2663.828429643842
 33
0.0
210
0.0
220
0.0
230
1.0
  0
SOLID
  5
6C2
330
5EA
100
AcDbEntity
  8
HATCH
  6
CONTINUOUS
 62
     1
100
AcDbTrace
 10
2193.500006517408
 20
3555.000002519096
 30
0.0
 11
2171.000006517407
 21
1503.000002519093
 31
0.0
 12
2189.500006517408
 22
2661.000002519095
 32
0.0
 13
2189.500006517408
 23
2661.000002519095
 33
0.0
210
0.0
220
0.0
230
1.0
  0
SOLID
  5
6C3
330
5EA
100
AcDbEntity
  8
HATCH
  6
CONTINUOUS
 62
     1
100
AcDbTrace
 10
1594.328433642155
 20
3556.171575394349
 30
0.0
 11
1591.500006517409
 21
3555.000002519094
 31
0.0
 12
1614.000006517408
 22
1503.000002519093
 32
0.0
 13
1614.000006517408
 23
1503.000002519093
 33
0.0
210
0.0
220
0.0
230
1.0
  0
SOLID
  5
6C4
330
5EA
100
AcDbEntity
  8
HATCH
  6
CONTINUOUS
 62
     1
100
AcDbTrace
 10
2190.671579392661
 20
3556.171575394349
 30
0.0
 11
2171.000006517407
 21
1503.000002519093
 31
0.0
 12
2193.500006517408
 22
3555.000002519096
 32
0.0
 13
2193.500006517408
 23
3555.000002519096
 33
0.0
  0
SOLID
  5
6C5
330
5EA
100
AcDbEntity
  8
HATCH
  6
CONTINUOUS
 62
     1
100
AcDbTrace
 10
1595.500006517409
 20
3559.000002519094
 30
0.0
 11
1594.328433642155
 21
3556.171575394349
 31
0.0
 12
1614.000006517408
 22
1503.000002519093
 32
0.0
 13
1614.000006517408
 23
1503.000002519093
 33
0.0
210
0.0
220
0.0
230
1.0
  0
SOLID
  5
6C6
330
5EA
100
AcDbEntity
  8
HATCH
  6
CONTINUOUS
 62
     1
100
AcDbTrace
 10
2189.500006517408
 20
3559.000002519096
 30
0.0
 11
2171.000006517407
 21
1503.000002519093
 31
0.0
 12
2190.671579392661
 22
3556.171575394349
 32
0.0
 13
2190.671579392661
 23
3556.171575394349
 33
0.0
  0
SOLID
  5
6C7
330
5EA
100
AcDbEntity
  8
HATCH
  6
CONTINUOUS
 62
     1
100
AcDbTrace
 10
1595.500006517406
 20
3661.000002519094
 30
0.0
 11
1595.500006517409
 21
3559.000002519094
 31
0.0
 12
1614.000006517408
 22
1503.000002519093
 32
0.0
 13
1614.000006517408
 23
1503.000002519093
 33
0.0
210
0.0
220
0.0
230
1.0
  0
SOLID
  5
6C8
330
5EA
100
AcDbEntity
  8
HATCH
  6
CONTINUOUS
 62
     1
100
AcDbTrace
 10
2189.500006517408
 20
3661.000002519095
 30
0.0
 11
2171.000006517407
 21
1503.000002519093
 31
0.0
 12
2189.500006517408
 22
3559.000002519096
 32
0.0
 13
2189.500006517408
 23
3559.000002519096
 33
0.0
210
0.0
220
0.0
230
1.0
  0
SOLID
  5
6C9
330
5EA
100
AcDbEntity
  8
HATCH
  6
CONTINUOUS
 62
     1
100
AcDbTrace
 10
1614.000006517407
 20
3721.000002519093
 30
0.0
 11
1591.500006517405
 21
3665.000002519094
 31
0.0
 12
1594.328433642152
 22
3663.82842964384
 32
0.0
 13
1594.328433642152
 23
3663.82842964384
 33
0.0
210
0.0
220
0.0
230
1.0
  0
SOLID
  5
6CA
330
5EA
100
AcDbEntity
  8
HATCH
  6
CONTINUOUS
 62
     1
100
AcDbTrace
 10
1614.000006517407
 20
3721.000002519093
 30
0.0
 11
1594.328433642152
 21
3663.82842964384
 31
0.0
 12
1595.500006517406
 22
3661.000002519094
 32
0.0
 13
1595.500006517406
 23
3661.000002519094
 33
0.0
210
0.0
220
0.0
230
1.0
  0
SOLID
  5
6CB
330
5EA
100
AcDbEntity
  8
HATCH
  6
CONTINUOUS
 62
     1
100
AcDbTrace
 10
1614.000006517407
 20
3721.000002519093
 30
0.0
 11
1595.500006517406
 21
3661.000002519094
 31
0.0
 12
1614.000006517408
 22
1503.000002519093
 32
0.0
 13
1614.000006517408
 23
1503.000002519093
 33
0.0
210
0.0
220
0.0
230
1.0
  0
SOLID
  5
6CC
330
5EA
100
AcDbEntity
  8
HATCH
  6
CONTINUOUS
 62
     1
100
AcDbTrace
 10
2196.000006517408
 20
3721.000002519093
 30
0.0
 11
2193.500006517408
 21
3665.000002519095
 31
0.0
 12
2196.000006517408
 22
3665.000002519095
 32
0.0
 13
2196.000006517408
 23
3665.000002519095
 33
0.0
  0
SOLID
  5
6CD
330
5EA
100
AcDbEntity
  8
HATCH
  6
CONTINUOUS
 62
     1
100
AcDbTrace
 10
2196.000006517408
 20
3721.000002519093
 30
0.0
 11
2190.671579392661
 21
3663.828429643842
 31
0.0
 12
2193.500006517408
 22
3665.000002519095
 32
0.0
 13
2193.500006517408
 23
3665.000002519095
 33
0.0
210
0.0
220
0.0
230
1.0
  0
SOLID
  5
6CE
330
5EA
100
AcDbEntity
  8
HATCH
  6
CONTINUOUS
 62
     1
100
AcDbTrace
 10
2196.000006517408
 20
3721.000002519093
 30
0.0
 11
2189.500006517408
 21
3661.000002519095
 31
0.0
 12
2190.671579392661
 22
3663.828429643842
 32
0.0
 13
2190.671579392661
 23
3663.828429643842
 33
0.0
210
0.0
220
0.0
230
1.0
  0
SOLID
  5
6CF
330
5EA
100
AcDbEntity
  8
HATCH
  6
CONTINUOUS
 62
     1
100
AcDbTrace
 10
1589.000006517408
 20
3721.000002519093
 30
0.0
 11
1591.500006517405
 21
3665.000002519094
 31
0.0
 12
1614.000006517407
 22
3721.000002519093
 32
0.0
 13
1614.000006517407
 23
3721.000002519093
 33
0.0
210
0.0
220
0.0
230
1.0
  0
SOLID
  5
6D0
330
5EA
100
AcDbEntity
  8
HATCH
  6
CONTINUOUS
 62
     1
100
AcDbTrace
 10
1589.000006517408
 20
3721.000002519093
 30
0.0
 11
1589.000006517408
 21
3665.000002519093
 31
0.0
 12
1591.500006517405
 22
3665.000002519094
 32
0.0
 13
1591.500006517405
 23
3665.000002519094
 33
0.0
210
0.0
220
0.0
230
1.0
  0
SOLID
  5
6D1
330
5EA
100
AcDbEntity
  8
HATCH
  6
CONTINUOUS
 62
     1
100
AcDbTrace
 10
2171.000006517408
 20
3721.000002519093
 30
0.0
 11
2189.500006517408
 21
3661.000002519095
 31
0.0
 12
2196.000006517408
 22
3721.000002519093
 32
0.0
 13
2196.000006517408
 23
3721.000002519093
 33
0.0
210
0.0
220
0.0
230
1.0
  0
SOLID
  5
6D2
330
5EA
100
AcDbEntity
  8
HATCH
  6
CONTINUOUS
 62
     1
100
AcDbTrace
 10
2171.000006517408
 20
3721.000002519093
 30
0.0
 11
2171.000006517407
 21
1503.000002519093
 31
0.0
 12
2189.500006517408
 22
3661.000002519095
 32
0.0
 13
2189.500006517408
 23
3661.000002519095
 33
0.0
210
0.0
220
0.0
230
1.0
  0
ENDBLK
  5
6D4
330
5EA
100
AcDbEntity
  8
0
100
AcDbBlockEnd
  0
BLOCK
  5
6DA
330
6D5
100
AcDbEntity
  8
0
100
AcDbBlockBegin
  2
*U3
 70
     1
 10
0.0
 20
0.0
 30
0.0
  3
*U3
  1

  0
SOLID
  5
6D6
330
6D5
100
AcDbEntity
  8
HATCH
  6
CONTINUOUS
 62
   251
100
AcDbTrace
 10
1892.500006517408
 20
2610.000002519093
 30
0.0
 11
1941.000006517408
 21
3695.000002519094
 31
0.0
 12
1844.000006517408
 22
3695.000002519092
 32
0.0
 13
1844.000006517408
 23
3695.000002519092
 33
0.0
210
0.0
220
0.0
230
1.0
  0
SOLID
  5
6D7
330
6D5
100
AcDbEntity
  8
HATCH
  6
CONTINUOUS
 62
   251
100
AcDbTrace
 10
1892.500006517408
 20
2610.000002519093
 30
0.0
 11
1844.000006517408
 21
3695.000002519092
 31
0.0
 12
1844.000006517408
 22
1525.000002519093
 32
0.0
 13
1844.000006517408
 23
1525.000002519093
 33
0.0
210
0.0
220
0.0
230
1.0
  0
SOLID
  5
6D8
330
6D5
100
AcDbEntity
  8
HATCH
  6
CONTINUOUS
 62
   251
100
AcDbTrace
 10
1892.500006517408
 20
2610.000002519093
 30
0.0
 11
1844.000006517408
 21
1525.000002519093
 31
0.0
 12
1941.000006517408
 22
1525.000002519093
 32
0.0
 13
1941.000006517408
 23
1525.000002519093
 33
0.0
210
0.0
220
0.0
230
1.0
  0
SOLID
  5
6D9
330
6D5
100
AcDbEntity
  8
HATCH
  6
CONTINUOUS
 62
   251
100
AcDbTrace
 10
1892.500006517408
 20
2610.000002519093
 30
0.0
 11
1941.000006517408
 21
1525.000002519093
 31
0.0
 12
1941.000006517408
 22
3695.000002519094
 32
0.0
 13
1941.000006517408
 23
3695.000002519094
 33
0.0
210
0.0
220
0.0
230
1.0
  0
ENDBLK
  5
6DB
330
6D5
100
AcDbEntity
  8
0
100
AcDbBlockEnd
  0
ENDSEC
  0
SECTION
  2
ENTITIES
  0
MTEXT
  5
1F0
330
1F
100
AcDbEntity
  8
TEKST
100
AcDbMText
 10
1514.612346317524
 20
4394.346704379202
 30
0.0
 40
100.0
 41
1991.156099999999
 71
     1
 72
     1
  1
{\FIMPACT.TTF;Hoogte: 112 cm\PMax. valhoogte: 100 cm}
1001
ACAD
1000
MTEXTBEGIN
1070
    73
1070
     1
1070
    44
1040
1.0
1070
    74
1070
     0
1000
MTEXTEND
1000
MTEXTBEGIN
1070
    73
1070
     1
1070
    44
1040
1.0
1070
    74
1070
     0
1000
MTEXTEND
  0
INSERT
  5
5BE
330
1F
100
AcDbEntity
  8
HATCH
100
AcDbBlockReference
  2
FDKA
 10
0.0
 20
0.0
 30
0.0
  0
ENDSEC
  0
SECTION
  2
OBJECTS
  0
DICTIONARY
  5
C
330
0
100
AcDbDictionary
  3
ACAD_GROUP
350
D
  3
ACAD_LAYOUT
350
1A
  3
ACAD_MLINESTYLE
350
17
  3
ACAD_PLOTSETTINGS
350
19
1001
ACAD
1000
TREAT_AS_HARD
1070
     0
1000
TREAT_AS_HARD
1070
     0
  0
DICTIONARY
  5
14A
330
1F
100
AcDbDictionary
  3
ACAD_LAYOUTSELFREF
350
5C0
  3
ACAD_SORTENTS
350
550
1001
ACAD
1000
TREAT_AS_HARD
1070
     1
1000
TREAT_AS_HARD
1070
     0
  0
DICTIONARY
  5
14C
330
50
100
AcDbDictionary
  3
ACAD_LAYOUTSELFREF
350
5C1
1001
ACAD
1000
TREAT_AS_HARD
1070
     1
1000
TREAT_AS_HARD
1070
     0
  0
DICTIONARY
  5
D
102
{ACAD_REACTORS
330
C
102
}
330
C
100
AcDbDictionary
1001
ACAD
1000
TREAT_AS_HARD
1070
     0
1000
TREAT_AS_HARD
1070
     0
  0
DICTIONARY
  5
1A
102
{ACAD_REACTORS
330
C
102
}
330
C
100
AcDbDictionary
1001
ACAD
1000
TREAT_AS_HARD
1070
     0
1000
TREAT_AS_HARD
1070
     0
  0
DICTIONARY
  5
17
102
{ACAD_REACTORS
330
C
102
}
330
C
100
AcDbDictionary
  3
STANDARD
350
18
1001
ACAD
1000
TREAT_AS_HARD
1070
     0
1000
TREAT_AS_HARD
1070
     0
  0
DICTIONARY
  5
19
102
{ACAD_REACTORS
330
C
102
}
330
C
100
AcDbDictionary
1001
ACAD
1000
TREAT_AS_HARD
1070
     0
1000
TREAT_AS_HARD
1070
     0
  0
XRECORD
  5
5C0
102
{ACAD_REACTORS
330
14A
102
}
330
14A
100
AcDbXrecord
340
1F
  0
SORTENTSTABLE
  5
550
102
{ACAD_REACTORS
330
14A
102
}
330
14A
100
AcDbSortentsTable
330
1F
331
3C1
  5
3C4
331
3D2
  5
4C9
331
3B0
  5
3B3
331
38E
  5
391
331
39F
  5
3A2
331
37D
  5
380
331
3D0
  5
3D3
331
3AE
  5
3B1
331
38C
  5
38F
331
3BF
  5
3C2
331
39D
  5
3A0
331
37B
  5
37E
331
3CE
  5
3D1
331
3AC
  5
3AF
331
38A
  5
38D
331
3BD
  5
3C0
331
39B
  5
39E
331
379
  5
37C
331
3CC
  5
3CF
331
3AA
  5
3AD
331
388
  5
38B
331
377
  5
37A
331
3BB
  5
3BE
331
399
  5
39C
331
1F0
  5
376
331
3CA
  5
3CD
331
3A8
  5
3AB
331
386
  5
389
331
3B9
  5
3BC
331
397
  5
39A
331
375
  5
378
331
3C8
  5
3CB
331
3A6
  5
3A9
331
384
  5
387
331
3B7
  5
3BA
331
395
  5
398
331
3C6
  5
3C9
331
3A4
  5
3A7
331
382
  5
385
331
3B5
  5
3B8
331
393
  5
396
331
3C4
  5
3C7
331
3A2
  5
3A5
331
380
  5
383
331
3B3
  5
3B6
331
391
  5
394
331
3C2
  5
3C5
331
3A0
  5
3A3
331
3D3
  5
54F
331
3B1
  5
3B4
331
38F
  5
392
331
37E
  5
381
331
3C0
  5
3C3
331
3D1
  5
487
331
3AF
  5
3B2
331
38D
  5
390
331
54F
  5
1F0
331
39E
  5
3A1
331
37C
  5
37F
331
3CF
  5
3D2
331
3AD
  5
3B0
331
38B
  5
38E
331
3BE
  5
3C1
331
39C
  5
39F
331
37A
  5
37D
331
487
  5
374
331
3CD
  5
3D0
331
3AB
  5
3AE
331
389
  5
38C
331
3BC
  5
3BF
331
39A
  5
39D
331
378
  5
37B
331
4C9
  5
375
331
3CB
  5
3CE
331
3A9
  5
3AC
331
387
  5
38A
331
3BA
  5
3BD
331
398
  5
39B
331
376
  5
379
331
3C9
  5
3CC
331
3A7
  5
3AA
331
385
  5
388
331
3B8
  5
3BB
331
396
  5
399
331
374
  5
377
331
3C7
  5
3CA
331
3A5
  5
3A8
331
383
  5
386
331
3B6
  5
3B9
331
394
  5
397
331
3C5
  5
3C8
331
3A3
  5
3A6
331
381
  5
384
331
3B4
  5
3B7
331
392
  5
395
331
3C3
  5
3C6
331
3A1
  5
3A4
331
3B2
  5
3B5
331
390
  5
393
331
37F
  5
382
  0
XRECORD
  5
5C1
102
{ACAD_REACTORS
330
14C
102
}
330
14C
100
AcDbXrecord
340
50
  0
MLINESTYLE
  5
18
102
{ACAD_REACTORS
330
17
102
}
330
17
100
AcDbMlineStyle
  2
STANDARD
 70
     0
  3

 62
   256
 51
90.0
 52
90.0
 71
     2
 49
0.5
 62
   256
  6
BYLAYER
 49
-0.5
 62
   256
  6
BYLAYER
  0
ENDSEC
  0
EOF
