  0
SECTION
  2
HEADER
  9
$ACADVER
  1
AC1012
  9
$DWGCODEPAGE
  3
ANSI_1252
  9
$INSBASE
 10
0.0
 20
0.0
 30
0.0
  9
$EXTMIN
 10
-293.8059051130751
 20
-293.8160800415312
 30
0.0
  9
$EXTMAX
 10
3666.113967671648
 20
4107.986784941875
 30
0.0
  9
$LIMMIN
 10
0.0
 20
0.0
  9
$LIMMAX
 10
420.0
 20
297.0
  9
$ORTHOMODE
 70
     0
  9
$REGENMODE
 70
     1
  9
$FILLMODE
 70
     1
  9
$QTEXTMODE
 70
     0
  9
$MIRRTEXT
 70
     1
  9
$DRAGMODE
 70
     2
  9
$LTSCALE
 40
1.0
  9
$OSMODE
 70
  2179
  9
$ATTMODE
 70
     1
  9
$TEXTSIZE
 40
2.5
  9
$TRACEWID
 40
1.0
  9
$TEXTSTYLE
  7
STANDARD
  9
$CLAYER
  8
HATCH
  9
$CELTYPE
  6
BYLAYER
  9
$CECOLOR
 62
     2
  9
$CELTSCALE
 40
1.0
  9
$DELOBJ
 70
     1
  9
$DISPSILH
 70
     0
  9
$DIMSCALE
 40
1.0
  9
$DIMASZ
 40
2.5
  9
$DIMEXO
 40
0.625
  9
$DIMDLI
 40
3.75
  9
$DIMRND
 40
0.0
  9
$DIMDLE
 40
0.0
  9
$DIMEXE
 40
1.25
  9
$DIMTP
 40
0.0
  9
$DIMTM
 40
0.0
  9
$DIMTXT
 40
2.5
  9
$DIMCEN
 40
2.5
  9
$DIMTSZ
 40
0.0
  9
$DIMTOL
 70
     0
  9
$DIMLIM
 70
     0
  9
$DIMTIH
 70
     0
  9
$DIMTOH
 70
     0
  9
$DIMSE1
 70
     0
  9
$DIMSE2
 70
     0
  9
$DIMTAD
 70
     1
  9
$DIMZIN
 70
     8
  9
$DIMBLK
  1

  9
$DIMASO
 70
     1
  9
$DIMSHO
 70
     1
  9
$DIMPOST
  1

  9
$DIMAPOST
  1

  9
$DIMALT
 70
     0
  9
$DIMALTD
 70
     3
  9
$DIMALTF
 40
0.03937007874016
  9
$DIMLFAC
 40
1.0
  9
$DIMTOFL
 70
     1
  9
$DIMTVP
 40
0.0
  9
$DIMTIX
 70
     0
  9
$DIMSOXD
 70
     0
  9
$DIMSAH
 70
     0
  9
$DIMBLK1
  1

  9
$DIMBLK2
  1

  9
$DIMSTYLE
  2
ISO-25
  9
$DIMCLRD
 70
     0
  9
$DIMCLRE
 70
     0
  9
$DIMCLRT
 70
     0
  9
$DIMTFAC
 40
1.0
  9
$DIMGAP
 40
0.625
  9
$DIMJUST
 70
     0
  9
$DIMSD1
 70
     0
  9
$DIMSD2
 70
     0
  9
$DIMTOLJ
 70
     0
  9
$DIMTZIN
 70
     8
  9
$DIMALTZ
 70
     0
  9
$DIMALTTZ
 70
     0
  9
$DIMFIT
 70
     3
  9
$DIMUPT
 70
     0
  9
$DIMUNIT
 70
     2
  9
$DIMDEC
 70
     2
  9
$DIMTDEC
 70
     2
  9
$DIMALTU
 70
     2
  9
$DIMALTTD
 70
     3
  9
$DIMTXSTY
  7
STANDARD
  9
$DIMAUNIT
 70
     0
  9
$LUNITS
 70
     2
  9
$LUPREC
 70
     4
  9
$SKETCHINC
 40
1.0
  9
$FILLETRAD
 40
10.0
  9
$AUNITS
 70
     0
  9
$AUPREC
 70
     0
  9
$MENU
  1
.
  9
$ELEVATION
 40
0.0
  9
$PELEVATION
 40
0.0
  9
$THICKNESS
 40
0.0
  9
$LIMCHECK
 70
     0
  9
$BLIPMODE
 70
     0
  9
$CHAMFERA
 40
10.0
  9
$CHAMFERB
 40
10.0
  9
$CHAMFERC
 40
20.0
  9
$CHAMFERD
 40
0.0
  9
$SKPOLY
 70
     0
  9
$TDCREATE
 40
2452626.501423264
  9
$TDUPDATE
 40
2452772.393026852
  9
$TDINDWG
 40
0.0050965278
  9
$TDUSRTIMER
 40
0.0050952546
  9
$USRTIMER
 70
     1
  9
$ANGBASE
 50
0.0
  9
$ANGDIR
 70
     0
  9
$PDMODE
 70
     0
  9
$PDSIZE
 40
0.0
  9
$PLINEWID
 40
0.0
  9
$COORDS
 70
     2
  9
$SPLFRAME
 70
     0
  9
$SPLINETYPE
 70
     6
  9
$SPLINESEGS
 70
     8
  9
$ATTDIA
 70
     0
  9
$ATTREQ
 70
     1
  9
$HANDLING
 70
-16383
  9
$HANDSEED
  5
3ED
  9
$SURFTAB1
 70
     6
  9
$SURFTAB2
 70
     6
  9
$SURFTYPE
 70
     6
  9
$SURFU
 70
     6
  9
$SURFV
 70
     6
  9
$UCSNAME
  2

  9
$UCSORG
 10
0.0
 20
0.0
 30
0.0
  9
$UCSXDIR
 10
1.0
 20
0.0
 30
0.0
  9
$UCSYDIR
 10
0.0
 20
1.0
 30
0.0
  9
$PUCSNAME
  2

  9
$PUCSORG
 10
0.0
 20
0.0
 30
0.0
  9
$PUCSXDIR
 10
1.0
 20
0.0
 30
0.0
  9
$PUCSYDIR
 10
0.0
 20
1.0
 30
0.0
  9
$USERI1
 70
     0
  9
$USERI2
 70
     0
  9
$USERI3
 70
     0
  9
$USERI4
 70
     0
  9
$USERI5
 70
     0
  9
$USERR1
 40
0.0
  9
$USERR2
 40
0.0
  9
$USERR3
 40
0.0
  9
$USERR4
 40
0.0
  9
$USERR5
 40
0.0
  9
$WORLDVIEW
 70
     1
  9
$SHADEDGE
 70
     3
  9
$SHADEDIF
 70
    70
  9
$TILEMODE
 70
     1
  9
$MAXACTVP
 70
    64
  9
$PINSBASE
 10
0.0
 20
0.0
 30
0.0
  9
$PLIMCHECK
 70
     0
  9
$PEXTMIN
 10
0.0
 20
0.0
 30
0.0
  9
$PEXTMAX
 10
0.0
 20
0.0
 30
0.0
  9
$PLIMMIN
 10
0.0
 20
0.0
  9
$PLIMMAX
 10
12.0
 20
9.0
  9
$UNITMODE
 70
     0
  9
$VISRETAIN
 70
     1
  9
$PLINEGEN
 70
     0
  9
$PSLTSCALE
 70
     1
  9
$TREEDEPTH
 70
  3020
  9
$PICKSTYLE
 70
     1
  9
$CMLSTYLE
  2
STANDARD
  9
$CMLJUST
 70
     0
  9
$CMLSCALE
 40
20.0
  9
$SAVEIMAGES
 70
     1
  0
ENDSEC
  0
SECTION
  2
CLASSES
  0
CLASS
  1
ACDBDICTIONARYWDFLT
  2
AcDbDictionaryWithDefault
  3
AutoCAD 2000
 90
    32768
280
     0
281
     0
  0
CLASS
  1
ACDBPLACEHOLDER
  2
AcDbPlaceHolder
  3
AutoCAD 2000
 90
    32768
280
     0
281
     0
  0
CLASS
  1
LAYOUT
  2
AcDbLayout
  3
AutoCAD 2000
 90
    32768
280
     0
281
     0
  0
CLASS
  1
LONG_TRANSACTION
  2
AcDbLongTransaction
  3
AutoCAD 2000
 90
    32768
280
     0
281
     0
  0
CLASS
  1
LWPOLYLINE
  2
AcDbPolyline
  3
AutoCAD 2000
 90
    32768
280
     0
281
     1
  0
CLASS
  1
HATCH
  2
AcDbHatch
  3
AutoCAD 2000
 90
    32768
280
     0
281
     1
  0
CLASS
  1
XRECORD
  2
AcDbXrecord
  3
AutoCAD 2000
 90
    32768
280
     0
281
     0
  0
CLASS
  1
LONG_TRANSACTION
  2
AcDbLongTransaction
  3
AutoCAD 2000
 90
    32768
280
     0
281
     0
  0
CLASS
  1
LWPOLYLINE
  2
AcDbPolyline
  3
AutoCAD 2000
 90
    32768
280
     0
281
     1
  0
CLASS
  1
HATCH
  2
AcDbHatch
  3
AutoCAD 2000
 90
    32768
280
     0
281
     1
  0
CLASS
  1
XRECORD
  2
AcDbXrecord
  3
AutoCAD 2000
 90
    32768
280
     0
281
     0
  0
CLASS
  1
LONG_TRANSACTION
  2
AcDbLongTransaction
  3
AutoCAD 2000
 90
    32768
280
     0
281
     0
  0
CLASS
  1
LWPOLYLINE
  2
AcDbPolyline
  3
AutoCAD 2000
 90
    32768
280
     0
281
     1
  0
CLASS
  1
HATCH
  2
AcDbHatch
  3
AutoCAD 2000
 90
    32768
280
     0
281
     1
  0
CLASS
  1
XRECORD
  2
AcDbXrecord
  3
AutoCAD 2000
 90
    32768
280
     0
281
     0
  0
CLASS
  1
LONG_TRANSACTION
  2
AcDbLongTransaction
  3
AutoCAD 2000
 90
    32768
280
     0
281
     0
  0
CLASS
  1
LWPOLYLINE
  2
AcDbPolyline
  3
AutoCAD 2000
 90
    32768
280
     0
281
     1
  0
CLASS
  1
HATCH
  2
AcDbHatch
  3
AutoCAD 2000
 90
    32768
280
     0
281
     1
  0
CLASS
  1
XRECORD
  2
AcDbXrecord
  3
AutoCAD 2000
 90
    32768
280
     0
281
     0
  0
CLASS
  1
DICTIONARYVAR
  2
AcDbDictionaryVar
  3
AutoCAD 2000
 90
    32768
280
     0
281
     0
  0
CLASS
  1
SORTENTSTABLE
  2
AcDbSortentsTable
  3
AutoCAD 2000
 90
    32768
280
     0
281
     0
  0
CLASS
  1
LONG_TRANSACTION
  2
AcDbLongTransaction
  3
AutoCAD 2000
 90
    32768
280
     0
281
     0
  0
CLASS
  1
LWPOLYLINE
  2
AcDbPolyline
  3
AutoCAD 2000
 90
    32768
280
     0
281
     1
  0
CLASS
  1
HATCH
  2
AcDbHatch
  3
AutoCAD 2000
 90
    32768
280
     0
281
     1
  0
CLASS
  1
XRECORD
  2
AcDbXrecord
  3
AutoCAD 2000
 90
    32768
280
     0
281
     0
  0
ENDSEC
  0
SECTION
  2
TABLES
  0
TABLE
  2
VPORT
  5
8
330
0
100
AcDbSymbolTable
 70
     2
  0
VPORT
  5
398
330
8
100
AcDbSymbolTableRecord
100
AcDbViewportTableRecord
  2
*ACTIVE
 70
     0
 10
0.0
 20
0.0
 11
1.0
 21
1.0
 12
1752.779839952126
 22
1990.60912625896
 13
0.0
 23
0.0
 14
10.0
 24
10.0
 15
10.0
 25
10.0
 16
0.0
 26
0.0
 36
1.0
 17
0.0
 27
0.0
 37
0.0
 40
5438.031805731373
 41
1.985355648535564
 42
50.0
 43
0.0
 44
0.0
 50
0.0
 51
0.0
 71
     0
 72
   100
 73
     1
 74
     3
 75
     0
 76
     0
 77
     0
 78
     0
  0
ENDTAB
  0
TABLE
  2
LTYPE
  5
5
330
0
100
AcDbSymbolTable
 70
     2
  0
LTYPE
  5
14
330
5
100
AcDbSymbolTableRecord
100
AcDbLinetypeTableRecord
  2
BYBLOCK
 70
     0
  3

 72
    65
 73
     0
 40
0.0
  0
LTYPE
  5
15
330
5
100
AcDbSymbolTableRecord
100
AcDbLinetypeTableRecord
  2
BYLAYER
 70
     0
  3

 72
    65
 73
     0
 40
0.0
  0
LTYPE
  5
16
330
5
100
AcDbSymbolTableRecord
100
AcDbLinetypeTableRecord
  2
CONTINUOUS
 70
     0
  3
Solid line
 72
    65
 73
     0
 40
0.0
  0
LTYPE
  5
5D
330
5
100
AcDbSymbolTableRecord
100
AcDbLinetypeTableRecord
  2
DASHED
 70
     0
  3
Dashed __ __ __ __ __ __ __ __ __ __ __ __ __ _
 72
    65
 73
     2
 40
0.75
 49
0.5
 74
     0
 49
-0.25
 74
     0
  0
ENDTAB
  0
TABLE
  2
LAYER
  5
2
330
0
100
AcDbSymbolTable
 70
     5
  0
LAYER
  5
10
330
2
100
AcDbSymbolTableRecord
100
AcDbLayerTableRecord
  2
0
 70
     0
 62
     7
  6
CONTINUOUS
  0
LAYER
  5
5E
330
2
100
AcDbSymbolTableRecord
100
AcDbLayerTableRecord
  2
SAFETY
 70
     0
 62
     7
  6
CONTINUOUS
  0
LAYER
  5
5F
330
2
100
AcDbSymbolTableRecord
100
AcDbLayerTableRecord
  2
OBJECT
 70
     0
 62
     7
  6
CONTINUOUS
  0
LAYER
  5
22D
330
2
100
AcDbSymbolTableRecord
100
AcDbLayerTableRecord
  2
TEKST
 70
     0
 62
     7
  6
CONTINUOUS
  0
LAYER
  5
2B6
330
2
100
AcDbSymbolTableRecord
100
AcDbLayerTableRecord
  2
HATCH
 70
     0
 62
     7
  6
CONTINUOUS
  0
ENDTAB
  0
TABLE
  2
STYLE
  5
3
330
0
100
AcDbSymbolTable
 70
     1
  0
STYLE
  5
11
330
3
100
AcDbSymbolTableRecord
100
AcDbTextStyleTableRecord
  2
STANDARD
 70
     0
 40
0.0
 41
1.0
 50
0.0
 71
     0
 42
2.5
  3
txt
  4

  0
ENDTAB
  0
TABLE
  2
VIEW
  5
6
330
0
100
AcDbSymbolTable
 70
     0
  0
ENDTAB
  0
TABLE
  2
UCS
  5
7
330
0
100
AcDbSymbolTable
 70
     0
  0
ENDTAB
  0
TABLE
  2
APPID
  5
9
330
0
100
AcDbSymbolTable
 70
     2
  0
APPID
  5
12
330
9
100
AcDbSymbolTableRecord
100
AcDbRegAppTableRecord
  2
ACAD
 70
     0
  0
APPID
  5
1FB
330
9
100
AcDbSymbolTableRecord
100
AcDbRegAppTableRecord
  2
CONTENTBLOCKICON
 70
     0
  0
ENDTAB
  0
TABLE
  2
DIMSTYLE
  5
A
330
0
100
AcDbSymbolTable
 70
     1
  0
DIMSTYLE
105
27
330
A
100
AcDbSymbolTableRecord
100
AcDbDimStyleTableRecord
  2
ISO-25
 70
     0
  3

  4

  5

  6

  7

 40
1.0
 41
2.5
 42
0.625
 43
3.75
 44
1.25
 45
0.0
 46
0.0
 47
0.0
 48
0.0
140
2.5
141
2.5
142
0.0
143
0.03937007874016
144
1.0
145
0.0
146
1.0
147
0.625
 71
     0
 72
     0
 73
     0
 74
     0
 75
     0
 76
     0
 77
     1
 78
     8
170
     0
171
     3
172
     1
173
     0
174
     0
175
     0
176
     0
177
     0
178
     0
270
     2
271
     2
272
     2
273
     2
274
     3
340
11
275
     0
280
     0
281
     0
282
     0
283
     0
284
     8
285
     0
286
     0
287
     3
288
     0
  0
ENDTAB
  0
TABLE
  2
BLOCK_RECORD
  5
1
330
0
100
AcDbSymbolTable
 70
     4
  0
BLOCK_RECORD
  5
1F
102
{ACAD_XDICTIONARY
360
15C
102
}
330
1
100
AcDbSymbolTableRecord
100
AcDbBlockTableRecord
  2
*MODEL_SPACE
  0
BLOCK_RECORD
  5
50
102
{ACAD_XDICTIONARY
360
15E
102
}
330
1
100
AcDbSymbolTableRecord
100
AcDbBlockTableRecord
  2
*PAPER_SPACE
  0
BLOCK_RECORD
  5
168
330
1
100
AcDbSymbolTableRecord
100
AcDbBlockTableRecord
  2
AAKL
1001
ACAD
1000
DesignCenter Data
1002
{
1070
     1
1070
     4
1002
}
  0
BLOCK_RECORD
  5
39B
330
1
100
AcDbSymbolTableRecord
100
AcDbBlockTableRecord
  2
*U1
  0
BLOCK_RECORD
  5
3D0
330
1
100
AcDbSymbolTableRecord
100
AcDbBlockTableRecord
  2
*U2
  0
BLOCK_RECORD
  5
3D7
330
1
100
AcDbSymbolTableRecord
100
AcDbBlockTableRecord
  2
*U3
  0
ENDTAB
  0
ENDSEC
  0
SECTION
  2
BLOCKS
  0
BLOCK
  5
20
330
1F
100
AcDbEntity
  8
0
100
AcDbBlockBegin
  2
*MODEL_SPACE
 70
     0
 10
0.0
 20
0.0
 30
0.0
  3
*MODEL_SPACE
  1

  0
ENDBLK
  5
21
330
1F
100
AcDbEntity
  8
0
100
AcDbBlockEnd
  0
BLOCK
  5
52
330
50
100
AcDbEntity
 67
     1
  8
0
100
AcDbBlockBegin
  2
*PAPER_SPACE
 70
     0
 10
0.0
 20
0.0
 30
0.0
  3
*PAPER_SPACE
  1

  0
ENDBLK
  5
53
330
50
100
AcDbEntity
 67
     1
  8
0
100
AcDbBlockEnd
  0
BLOCK
  5
169
330
168
100
AcDbEntity
  8
0
100
AcDbBlockBegin
  2
AAKL
 70
     0
 10
0.0
 20
0.0
 30
0.0
  3
AAKL
  1

  0
INSERT
  5
328
330
168
100
AcDbEntity
  8
HATCH
  6
CONTINUOUS
 62
     1
100
AcDbBlockReference
  2
*U1
 10
0.0
 20
0.0
 30
0.0
1001
ACAD
1002
{
1000
R14_HATCH_DATA
1000
328
1011
1.0
1021
0.0
1031
0.0
1011
0.0
1021
1.0
1031
0.0
1011
0.0
1021
0.0
1031
1.0
1040
0.0
1010
0.0
1020
0.0
1030
1.0
1000
SOLID
1070
     1
1070
     0
1071
       12
1071
        7
1070
     0
1070
     1
1071
        4
1040
1534.854266666745
1040
2297.326613162053
1040
1516.854266666745
1040
2297.326613162053
1040
1516.854266666745
1040
1698.697142061551
1040
1534.854266666745
1040
1698.697142061551
1071
        0
1071
        7
1070
     0
1070
     1
1071
        4
1040
1852.854266666746
1040
2297.326613162053
1040
1834.854266666744
1040
2297.326613162053
1040
1834.854266666744
1040
1698.697142061551
1040
1852.854266666746
1040
1698.697142061551
1071
        0
1071
        7
1070
     1
1070
     1
1071
        6
1040
1834.854266666743
1040
1901.178551213289
1040
0.0
1040
1832.854266666744
1040
1901.178551213289
1040
0.4142135623730618
1040
1824.854266666745
1040
1893.178551213289
1040
0.0
1040
1824.854266666745
1040
1859.178551213289
1040
0.4142135623730951
1040
1832.854266666744
1040
1851.178551213289
1040
0.0
1040
1834.854266666744
1040
1851.178551213289
1040
0.0
1071
        0
1071
        7
1070
     1
1070
     1
1071
        6
1040
1834.854266666744
1040
1766.066370472391
1040
0.0
1040
1832.854266666744
1040
1766.066370472391
1040
0.4142135623730618
1040
1824.854266666745
1040
1758.066370472391
1040
0.0
1040
1824.854266666745
1040
1724.066370472391
1040
0.4142135623730951
1040
1832.854266666744
1040
1716.066370472391
1040
0.0
1040
1834.854266666744
1040
1716.066370472391
1040
0.0
1071
        0
1071
        7
1070
     1
1070
     1
1071
        6
1040
1544.854266666745
1040
1893.178551213289
1040
0.4142135623730951
1040
1536.854266666745
1040
1901.178551213289
1040
0.0
1040
1534.854266666745
1040
1901.178551213289
1040
0.0
1040
1534.854266666745
1040
1851.178551213289
1040
0.0
1040
1536.854266666745
1040
1851.178551213289
1040
0.4142135623730951
1040
1544.854266666745
1040
1859.178551213289
1040
0.0
1071
        0
1071
        7
1070
     1
1070
     1
1071
        6
1040
1544.854266666745
1040
1758.066370472391
1040
0.4142135623730951
1040
1536.854266666745
1040
1766.066370472391
1040
0.0
1040
1534.854266666745
1040
1766.06637047239
1040
0.0
1040
1534.854266666745
1040
1716.066370472391
1040
0.0
1040
1536.854266666745
1040
1716.066370472391
1040
0.4142135623730951
1040
1544.854266666745
1040
1724.066370472391
1040
0.0
1071
        0
1071
        7
1070
     0
1070
     1
1071
        4
1040
1534.854266666744
1040
1698.697142061551
1040
1516.854266666745
1040
1698.697142061551
1040
1516.854266666744
1040
1571.260009459577
1040
1534.854266666745
1040
1571.260009459577
1071
        0
1071
        7
1070
     0
1070
     1
1071
        4
1040
1534.854266666745
1040
1571.260009459577
1040
1516.854266666745
1040
1571.260009459576
1040
1516.854266666745
1040
1518.844091738289
1040
1534.854266666744
1040
1518.844091738288
1071
        0
1071
        7
1070
     0
1070
     1
1071
        4
1040
1852.854266666746
1040
1698.697142061551
1040
1834.854266666744
1040
1698.697142061551
1040
1834.854266666744
1040
1571.260009459576
1040
1852.854266666746
1040
1571.260009459576
1071
        0
1071
        7
1070
     0
1070
     1
1071
        4
1040
1852.854266666746
1040
1571.260009459577
1040
1834.854266666744
1040
1571.260009459577
1040
1834.854266666744
1040
1518.844091738289
1040
1852.854266666746
1040
1518.844091738289
1071
        0
1071
        7
1070
     1
1070
     1
1071
        8
1040
1834.854266666744
1040
2089.225772257364
1040
0.0
1040
1534.854266666745
1040
2089.225772257363
1040
0.0
1040
1534.854266666745
1040
1901.178551213289
1040
0.0
1040
1536.854266666745
1040
1901.178551213289
1040
-0.3960121918357187
1040
1544.83862637808
1040
1893.678551213288
1040
0.0
1040
1824.869906955408
1040
1893.678551213288
1040
-0.3960121918357187
1040
1832.854266666744
1040
1901.178551213289
1040
0.0
1040
1834.854266666744
1040
1901.178551213289
1040
0.0
1071
        0
1071
        7
1070
     0
1070
     1
1071
        4
1040
1834.854266666744
1040
2136.859768170411
1040
1534.854266666745
1040
2136.85976817041
1040
1534.854266666745
1040
2089.225772257363
1040
1834.854266666743
1040
2089.225772257363
1071
        0
1070
     0
1070
     1
1040
2.168477457815307
1071
       12
1040
1527.141647162629
1040
2033.24409771879
1040
0.0
1040
1844.067749175053
1040
2007.222369479008
1040
0.0
1040
1828.872649417688
1040
1879.282197003143
1040
0.0
1040
1828.872649417688
1040
1742.668118566125
1040
0.0
1040
1540.166000759527
1040
1883.619155161881
1040
0.0
1040
1540.166000759527
1040
1738.331160407387
1040
0.0
1040
1527.141647162629
1040
1621.233372972046
1040
0.0
1040
1527.141647162629
1040
1536.662751014591
1040
0.0
1040
1841.897023575569
1040
1645.086632488781
1040
0.0
1040
1841.897023575569
1040
1547.505146411436
1040
0.0
1040
1668.238872811991
1040
1950.841954840705
1040
0.0
1040
1672.580344571942
1040
2115.646240596876
1040
0.0
1002
}
  0
INSERT
  5
329
330
168
100
AcDbEntity
  8
HATCH
  6
CONTINUOUS
 62
     2
100
AcDbBlockReference
  2
*U2
 10
0.0
 20
0.0
 30
0.0
1001
ACAD
1002
{
1000
R14_HATCH_DATA
1000
329
1011
1.0
1021
0.0
1031
0.0
1011
0.0
1021
1.0
1031
0.0
1011
0.0
1021
0.0
1031
1.0
1040
0.0
1010
0.0
1020
0.0
1030
1.0
1000
SOLID
1070
     1
1070
     1
1071
        2
1071
        7
1070
     0
1070
     1
1071
        4
1040
1824.854266666745
1040
1858.678551213288
1040
1824.854266666744
1040
1893.678551213288
1040
1544.854266666744
1040
1893.678551213287
1040
1544.854266666745
1040
1858.678551213289
1071
        4
1005
32E
1005
355
1005
32D
1005
376
1071
        7
1070
     0
1070
     1
1071
        4
1040
1824.854266666745
1040
1723.566370472391
1040
1824.854266666745
1040
1758.566370472391
1040
1544.854266666745
1040
1758.566370472391
1040
1544.854266666745
1040
1723.566370472391
1071
        4
1005
32B
1005
34F
1005
32C
1005
370
1070
     0
1070
     1
1040
2.168477457815307
1071
        2
1040
1644.360891217675
1040
1868.439811962621
1040
0.0
1040
1635.677988819741
1040
1731.825723169282
1040
0.0
1002
}
  0
INSERT
  5
32A
330
168
100
AcDbEntity
  8
HATCH
  6
CONTINUOUS
 62
   251
100
AcDbBlockReference
  2
*U3
 10
0.0
 20
0.0
 30
0.0
1001
ACAD
1002
{
1000
R14_HATCH_DATA
1000
32A
1011
1.0
1021
0.0
1031
0.0
1011
0.0
1021
1.0
1031
0.0
1011
0.0
1021
0.0
1031
1.0
1040
0.0
1010
0.0
1020
0.0
1030
1.0
1000
SOLID
1070
     1
1070
     0
1071
        4
1071
        7
1070
     0
1070
     1
1071
        5
1040
1516.854266666744
1040
1697.427613486773
1040
1498.854266666745
1040
1697.427613486774
1040
1498.854266666745
1040
1694.261001958962
1040
1498.854266666745
1040
1571.260009459577
1040
1516.854266666744
1040
1571.260009459577
1071
        0
1071
        7
1070
     0
1070
     1
1071
        4
1040
1516.854266666744
1040
1571.260009459576
1040
1498.854266666745
1040
1571.260009459577
1040
1498.854266666745
1040
1518.844091738288
1040
1516.854266666745
1040
1518.844091738289
1071
        0
1071
        7
1070
     0
1070
     1
1071
        5
1040
1870.854266666746
1040
1694.261001958962
1040
1870.854266666746
1040
1697.427613486774
1040
1852.854266666746
1040
1697.427613486774
1040
1852.854266666746
1040
1571.260009459577
1040
1870.854266666746
1040
1571.260009459577
1071
        0
1071
        7
1070
     0
1070
     1
1071
        4
1040
1870.854266666746
1040
1571.260009459576
1040
1852.854266666746
1040
1571.260009459576
1040
1852.854266666745
1040
1518.844091738289
1040
1870.854266666746
1040
1518.844091738289
1071
        0
1070
     0
1070
     1
1040
2.811964291221114
1071
        8
1040
1505.434391167793
1040
1616.89642516963
1040
0.0
1040
1501.092939968828
1040
1554.01057329322
1040
0.0
1040
1859.262828371436
1040
1645.086632488781
1040
0.0
1040
1861.43355397092
1040
1545.336667332067
1040
0.0
1040
1507.424611912549
1040
1614.731280825768
1040
0.0
1040
1504.609731330296
1040
1550.056105154582
1040
0.0
1040
1864.914486981022
1040
1642.850920170562
1040
0.0
1040
1859.284725816509
1040
1550.056105154582
1040
0.0
1002
}
  0
LINE
  5
32B
330
168
100
AcDbEntity
  8
OBJECT
100
AcDbLine
 10
1544.854266666745
 20
1758.566370472391
 30
0.0
 11
1824.854266666745
 21
1758.566370472391
 31
0.0
  0
LINE
  5
32C
330
168
100
AcDbEntity
  8
OBJECT
100
AcDbLine
 10
1544.854266666745
 20
1723.566370472391
 30
0.0
 11
1824.854266666745
 21
1723.566370472391
 31
0.0
  0
LINE
  5
32D
330
168
100
AcDbEntity
  8
OBJECT
100
AcDbLine
 10
1544.854266666745
 20
1858.678551213289
 30
0.0
 11
1824.854266666745
 21
1858.678551213289
 31
0.0
  0
LINE
  5
32E
330
168
100
AcDbEntity
  8
OBJECT
100
AcDbLine
 10
1544.854266666745
 20
1893.678551213288
 30
0.0
 11
1824.854266666745
 21
1893.678551213288
 31
0.0
  0
LINE
  5
32F
330
168
100
AcDbEntity
  8
OBJECT
100
AcDbLine
 10
1534.854266666745
 20
2089.225772257364
 30
0.0
 11
1834.854266666744
 21
2089.225772257364
 31
0.0
  0
LINE
  5
330
330
168
100
AcDbEntity
  8
OBJECT
100
AcDbLine
 10
1834.854266666744
 20
2136.859768170411
 30
0.0
 11
1534.854266666745
 21
2136.859768170411
 31
0.0
  0
LINE
  5
331
330
168
100
AcDbEntity
  8
OBJECT
100
AcDbLine
 10
1534.854266666745
 20
2144.560648877747
 30
0.0
 11
1834.854266666744
 21
2144.560648877747
 31
0.0
  0
LINE
  5
332
330
168
100
AcDbEntity
  8
OBJECT
100
AcDbLine
 10
1834.854266666744
 20
2144.560648877747
 30
0.0
 11
1534.854266666745
 21
2144.560648877747
 31
0.0
  0
LINE
  5
333
330
168
100
AcDbEntity
  8
OBJECT
100
AcDbLine
 10
1834.854266666744
 20
2136.859768170411
 30
0.0
 11
1534.854266666745
 21
2136.859768170411
 31
0.0
  0
LINE
  5
334
330
168
100
AcDbEntity
  8
OBJECT
100
AcDbLine
 10
1534.854266666745
 20
2151.561026963281
 30
0.0
 11
1834.854266666744
 21
2151.561026963281
 31
0.0
  0
ARC
  5
335
330
168
100
AcDbEntity
  8
OBJECT
100
AcDbCircle
 10
1530.91482141308
 20
1901.006442595712
 30
0.0
 40
19.84185474633748
100
AcDbArc
 50
135.123633003017
 51
218.7295068686289
  0
LINE
  5
336
330
168
100
AcDbEntity
  8
OBJECT
100
AcDbLine
 10
1516.854266666745
 20
1698.697142061549
 30
0.0
 11
1516.854266666745
 21
2297.326613162053
 31
0.0
  0
LINE
  5
337
330
168
100
AcDbEntity
  8
OBJECT
100
AcDbLine
 10
1534.854266666745
 20
1698.697142061549
 30
0.0
 11
1534.854266666745
 21
2297.326613162053
 31
0.0
  0
LINE
  5
338
330
168
100
AcDbEntity
  8
OBJECT
100
AcDbLine
 10
1516.854266666745
 20
1518.844091738289
 30
0.0
 11
1516.854266666745
 21
1571.260009459577
 31
0.0
  0
LINE
  5
339
330
168
100
AcDbEntity
  8
OBJECT
100
AcDbLine
 10
1534.854266666745
 20
1518.844091738289
 30
0.0
 11
1534.854266666745
 21
1571.260009459577
 31
0.0
  0
LINE
  5
33A
330
168
100
AcDbEntity
  8
OBJECT
100
AcDbLine
 10
1516.854266666745
 20
1518.844091738289
 30
0.0
 11
1516.854266666745
 21
1571.260009459577
 31
0.0
  0
LINE
  5
33B
330
168
100
AcDbEntity
  8
OBJECT
100
AcDbLine
 10
1498.854266666745
 20
1518.844091738289
 30
0.0
 11
1498.854266666745
 21
1571.260009459577
 31
0.0
  0
LINE
  5
33C
330
168
100
AcDbEntity
  8
OBJECT
100
AcDbLine
 10
1534.854266666745
 20
1518.844091738289
 30
0.0
 11
1516.854266666745
 21
1518.844091738289
 31
0.0
  0
LINE
  5
33D
330
168
100
AcDbEntity
  8
OBJECT
100
AcDbLine
 10
1516.854266666745
 20
1518.844091738289
 30
0.0
 11
1498.854266666745
 21
1518.844091738289
 31
0.0
  0
LINE
  5
33E
330
168
100
AcDbEntity
  8
OBJECT
100
AcDbLine
 10
1534.854266666745
 20
1698.697142061551
 30
0.0
 11
1516.854266666745
 21
1698.697142061551
 31
0.0
  0
LINE
  5
33F
330
168
100
AcDbEntity
  8
OBJECT
100
AcDbLine
 10
1534.854266666745
 20
1571.260009459577
 30
0.0
 11
1516.854266666745
 21
1571.260009459577
 31
0.0
  0
LINE
  5
340
330
168
100
AcDbEntity
  8
OBJECT
100
AcDbLine
 10
1516.854263920651
 20
1727.066370472391
 30
0.0
 11
1516.854266666745
 21
1741.066370497508
 31
0.0
  0
ARC
  5
341
330
168
100
AcDbEntity
  8
OBJECT
100
AcDbCircle
 10
1530.91482141308
 20
1741.066367714418
 30
0.0
 40
19.84185474633749
100
AcDbArc
 50
135.123633003017
 51
224.8763445199299
  0
LINE
  5
342
330
168
100
AcDbEntity
  8
OBJECT
100
AcDbLine
 10
1516.854266666745
 20
1571.260009459577
 30
0.0
 11
1516.854266666745
 21
1694.261001958962
 31
0.0
  0
LINE
  5
343
330
168
100
AcDbEntity
  8
OBJECT
100
AcDbLine
 10
1498.854266666745
 20
1571.260009459577
 30
0.0
 11
1498.854266666745
 21
1694.261001958962
 31
0.0
  0
LINE
  5
344
330
168
100
AcDbEntity
  8
OBJECT
100
AcDbLine
 10
1516.854266666745
 20
1571.260009459577
 30
0.0
 11
1516.854266666745
 21
1698.697142061551
 31
0.0
  0
ARC
  5
345
330
168
100
AcDbEntity
  8
OBJECT
100
AcDbCircle
 10
1512.91482141308
 20
1627.4906640862
 30
0.0
 40
19.84185474633748
100
AcDbArc
 50
135.123633003017
 51
224.8763445199299
  0
LINE
  5
346
330
168
100
AcDbEntity
  8
OBJECT
100
AcDbLine
 10
1498.854263920653
 20
1613.490666844171
 30
0.0
 11
1498.854266666745
 21
1627.490666869287
 31
0.0
  0
LINE
  5
347
330
168
100
AcDbEntity
  8
OBJECT
100
AcDbLine
 10
1516.854266666745
 20
1571.260009459577
 30
0.0
 11
1498.854266666745
 21
1571.260009459577
 31
0.0
  0
LINE
  5
348
330
168
100
AcDbEntity
  8
OBJECT
100
AcDbLine
 10
1498.854266666745
 20
1694.261001958962
 30
0.0
 11
1498.854266666745
 21
1697.427613486774
 31
0.0
  0
LINE
  5
349
330
168
100
AcDbEntity
  8
OBJECT
100
AcDbLine
 10
1516.854266666745
 20
1697.427613486774
 30
0.0
 11
1498.854266666745
 21
1697.427613486774
 31
0.0
  0
ARC
  5
34A
330
168
100
AcDbEntity
  8
OBJECT
100
AcDbCircle
 10
1530.91482141308
 20
1799.449911104088
 30
0.0
 40
19.84185474633749
100
AcDbArc
 50
135.123633003017
 51
224.8763445199299
  0
LINE
  5
34B
330
168
100
AcDbEntity
  8
OBJECT
100
AcDbLine
 10
1516.854263920651
 20
1785.449913862058
 30
0.0
 11
1516.854266666745
 21
1799.449913887174
 31
0.0
  0
ARC
  5
34C
330
168
100
AcDbEntity
  8
OBJECT
100
AcDbCircle
 10
1530.91482141308
 20
1876.178548455317
 30
0.0
 40
19.84185474633748
100
AcDbArc
 50
135.123633003017
 51
224.8763445199299
  0
LINE
  5
34D
330
168
100
AcDbEntity
  8
OBJECT
100
AcDbLine
 10
1516.854263920651
 20
1862.178551213289
 30
0.0
 11
1516.854266666745
 21
1876.178551238406
 31
0.0
  0
LINE
  5
34E
330
168
100
AcDbEntity
  8
OBJECT
100
AcDbLine
 10
1516.854264542857
 20
1890.178546322244
 30
0.0
 11
1516.854266666745
 21
1901.0064453788
 31
0.0
  0
LINE
  5
34F
330
168
100
AcDbEntity
  8
OBJECT
100
AcDbLine
 10
1544.854266666745
 20
1723.566370472391
 30
0.0
 11
1544.854266666745
 21
1758.566370472391
 31
0.0
  0
LINE
  5
350
330
168
100
AcDbEntity
  8
OBJECT
100
AcDbLine
 10
1534.854266666745
 20
1571.260009459577
 30
0.0
 11
1534.854266666745
 21
1698.697142061551
 31
0.0
  0
LINE
  5
351
330
168
100
AcDbEntity
  8
OBJECT
100
AcDbLine
 10
1536.854266666745
 20
1716.066370472391
 30
0.0
 11
1534.854266666745
 21
1716.066370472391
 31
0.0
  0
ARC
  5
352
330
168
100
AcDbEntity
  8
OBJECT
100
AcDbCircle
 10
1536.854266666745
 20
1724.066370472391
 30
0.0
 40
8.0
100
AcDbArc
 50
270.0
 51
0.0
  0
ARC
  5
353
330
168
100
AcDbEntity
  8
OBJECT
100
AcDbCircle
 10
1536.854266666745
 20
1758.066370472391
 30
0.0
 40
8.0
100
AcDbArc
 50
0.0
 51
90.0
  0
LINE
  5
354
330
168
100
AcDbEntity
  8
OBJECT
100
AcDbLine
 10
1536.854266666745
 20
1766.066370472391
 30
0.0
 11
1534.854266666745
 21
1766.066370472391
 31
0.0
  0
LINE
  5
355
330
168
100
AcDbEntity
  8
OBJECT
100
AcDbLine
 10
1544.854266666745
 20
1858.678551213289
 30
0.0
 11
1544.854266666745
 21
1893.678551213288
 31
0.0
  0
LINE
  5
356
330
168
100
AcDbEntity
  8
OBJECT
100
AcDbLine
 10
1536.854266666745
 20
1851.178551213289
 30
0.0
 11
1534.854266666745
 21
1851.178551213289
 31
0.0
  0
ARC
  5
357
330
168
100
AcDbEntity
  8
OBJECT
100
AcDbCircle
 10
1536.854266666745
 20
1859.178551213289
 30
0.0
 40
8.0
100
AcDbArc
 50
270.0
 51
0.0
  0
LINE
  5
358
330
168
100
AcDbEntity
  8
OBJECT
100
AcDbLine
 10
1536.854266666745
 20
1901.178551213289
 30
0.0
 11
1534.854266666745
 21
1901.178551213289
 31
0.0
  0
ARC
  5
359
330
168
100
AcDbEntity
  8
OBJECT
100
AcDbCircle
 10
1536.854266666745
 20
1893.178551213289
 30
0.0
 40
8.0
100
AcDbArc
 50
0.0
 51
90.0
  0
ARC
  5
35A
330
168
100
AcDbEntity
  8
OBJECT
100
AcDbCircle
 10
1530.91482141308
 20
2073.80123926819
 30
0.0
 40
19.84185474633748
100
AcDbArc
 50
135.123633003017
 51
224.8763445199299
  0
ARC
  5
35B
330
168
100
AcDbEntity
  8
OBJECT
100
AcDbCircle
 10
1530.91482141308
 20
1994.70671593366
 30
0.0
 40
19.84185474633748
100
AcDbArc
 50
135.123633003017
 51
224.8763445199299
  0
LINE
  5
35C
330
168
100
AcDbEntity
  8
OBJECT
100
AcDbLine
 10
1516.854263920651
 20
1980.706718691631
 30
0.0
 11
1516.854266666745
 21
1994.706718716748
 31
0.0
  0
LINE
  5
35D
330
168
100
AcDbEntity
  8
OBJECT
100
AcDbLine
 10
1516.854263920651
 20
2059.80124202616
 30
0.0
 11
1516.854266666745
 21
2073.801242051277
 31
0.0
  0
ARC
  5
35E
330
168
100
AcDbEntity
  8
OBJECT
100
AcDbCircle
 10
1530.91482141308
 20
2132.327820145877
 30
0.0
 40
19.84185474633748
100
AcDbArc
 50
135.123633003017
 51
224.8763445199299
  0
LINE
  5
35F
330
168
100
AcDbEntity
  8
OBJECT
100
AcDbLine
 10
1516.854263920651
 20
2118.32782290385
 30
0.0
 11
1516.854266666745
 21
2132.327822928967
 31
0.0
  0
ARC
  5
360
330
168
100
AcDbEntity
  8
OBJECT
100
AcDbCircle
 10
1530.91482141308
 20
2230.245681865155
 30
0.0
 40
19.84185474633749
100
AcDbArc
 50
135.123633003017
 51
224.8763445199299
  0
LINE
  5
361
330
168
100
AcDbEntity
  8
OBJECT
100
AcDbLine
 10
1516.854263920651
 20
2216.245684623127
 30
0.0
 11
1516.854266666745
 21
2230.245684648243
 31
0.0
  0
ARC
  5
362
330
168
100
AcDbEntity
  8
OBJECT
100
AcDbCircle
 10
1530.91482141308
 20
2182.756355632107
 30
0.0
 40
19.84185474633748
100
AcDbArc
 50
135.123633003017
 51
224.8763445199299
  0
LINE
  5
363
330
168
100
AcDbEntity
  8
OBJECT
100
AcDbLine
 10
1516.854263920651
 20
2168.756358390079
 30
0.0
 11
1516.854266666745
 21
2182.756358415195
 31
0.0
  0
LINE
  5
364
330
168
100
AcDbEntity
  8
OBJECT
100
AcDbLine
 10
1534.854266666745
 20
2297.326613162053
 30
0.0
 11
1516.854266666745
 21
2297.326613162053
 31
0.0
  0
ARC
  5
365
330
168
100
AcDbEntity
  8
OBJECT
100
AcDbCircle
 10
1838.793711920411
 20
1901.006442595712
 30
0.0
 40
19.84185474633748
100
AcDbArc
 50
321.2704931313708
 51
44.87636699698271
  0
LINE
  5
366
330
168
100
AcDbEntity
  8
OBJECT
100
AcDbLine
 10
1852.854266666746
 20
1698.697142061549
 30
0.0
 11
1852.854266666746
 21
2297.326613162053
 31
0.0
  0
LINE
  5
367
330
168
100
AcDbEntity
  8
OBJECT
100
AcDbLine
 10
1834.854266666744
 20
1698.697142061549
 30
0.0
 11
1834.854266666744
 21
2297.326613162053
 31
0.0
  0
LINE
  5
368
330
168
100
AcDbEntity
  8
OBJECT
100
AcDbLine
 10
1870.854266666746
 20
1518.844091738289
 30
0.0
 11
1870.854266666746
 21
1571.260009459577
 31
0.0
  0
LINE
  5
369
330
168
100
AcDbEntity
  8
OBJECT
100
AcDbLine
 10
1852.854266666746
 20
1518.844091738289
 30
0.0
 11
1852.854266666746
 21
1571.260009459577
 31
0.0
  0
LINE
  5
36A
330
168
100
AcDbEntity
  8
OBJECT
100
AcDbLine
 10
1852.854266666746
 20
1518.844091738289
 30
0.0
 11
1852.854266666746
 21
1571.260009459577
 31
0.0
  0
LINE
  5
36B
330
168
100
AcDbEntity
  8
OBJECT
100
AcDbLine
 10
1834.854266666744
 20
1518.844091738289
 30
0.0
 11
1834.854266666744
 21
1571.260009459577
 31
0.0
  0
LINE
  5
36C
330
168
100
AcDbEntity
  8
OBJECT
100
AcDbLine
 10
1852.854266666746
 20
1518.844091738289
 30
0.0
 11
1834.854266666744
 21
1518.844091738289
 31
0.0
  0
LINE
  5
36D
330
168
100
AcDbEntity
  8
OBJECT
100
AcDbLine
 10
1870.854266666746
 20
1518.844091738289
 30
0.0
 11
1852.854266666746
 21
1518.844091738289
 31
0.0
  0
LINE
  5
36E
330
168
100
AcDbEntity
  8
OBJECT
100
AcDbLine
 10
1852.854266666746
 20
1698.697142061551
 30
0.0
 11
1834.854266666744
 21
1698.697142061551
 31
0.0
  0
LINE
  5
36F
330
168
100
AcDbEntity
  8
OBJECT
100
AcDbLine
 10
1852.854266666746
 20
1571.260009459577
 30
0.0
 11
1834.854266666744
 21
1571.260009459577
 31
0.0
  0
LINE
  5
370
330
168
100
AcDbEntity
  8
OBJECT
100
AcDbLine
 10
1824.854266666745
 20
1758.566370472391
 30
0.0
 11
1824.854266666745
 21
1723.566370472391
 31
0.0
  0
LINE
  5
371
330
168
100
AcDbEntity
  8
OBJECT
100
AcDbLine
 10
1834.854266666744
 20
1571.260009459577
 30
0.0
 11
1834.854266666744
 21
1698.697142061551
 31
0.0
  0
LINE
  5
372
330
168
100
AcDbEntity
  8
OBJECT
100
AcDbLine
 10
1832.854266666744
 20
1716.066370472391
 30
0.0
 11
1834.854266666744
 21
1716.066370472391
 31
0.0
  0
ARC
  5
373
330
168
100
AcDbEntity
  8
OBJECT
100
AcDbCircle
 10
1832.854266666744
 20
1724.066370472391
 30
0.0
 40
8.0
100
AcDbArc
 50
180.0
 51
270.0
  0
ARC
  5
374
330
168
100
AcDbEntity
  8
OBJECT
100
AcDbCircle
 10
1832.854266666744
 20
1758.066370472391
 30
0.0
 40
8.0
100
AcDbArc
 50
90.0
 51
180.0
  0
LINE
  5
375
330
168
100
AcDbEntity
  8
OBJECT
100
AcDbLine
 10
1832.854266666744
 20
1766.066370472391
 30
0.0
 11
1834.854266666744
 21
1766.066370472391
 31
0.0
  0
LINE
  5
376
330
168
100
AcDbEntity
  8
OBJECT
100
AcDbLine
 10
1824.854266666745
 20
1893.678551213288
 30
0.0
 11
1824.854266666745
 21
1858.678551213289
 31
0.0
  0
LINE
  5
377
330
168
100
AcDbEntity
  8
OBJECT
100
AcDbLine
 10
1832.854266666744
 20
1851.178551213289
 30
0.0
 11
1834.854266666744
 21
1851.178551213289
 31
0.0
  0
ARC
  5
378
330
168
100
AcDbEntity
  8
OBJECT
100
AcDbCircle
 10
1832.854266666744
 20
1859.178551213289
 30
0.0
 40
8.0
100
AcDbArc
 50
180.0
 51
270.0
  0
LINE
  5
379
330
168
100
AcDbEntity
  8
OBJECT
100
AcDbLine
 10
1832.854266666744
 20
1901.178551213289
 30
0.0
 11
1834.854266666744
 21
1901.178551213289
 31
0.0
  0
ARC
  5
37A
330
168
100
AcDbEntity
  8
OBJECT
100
AcDbCircle
 10
1832.854266666744
 20
1893.178551213289
 30
0.0
 40
8.0
100
AcDbArc
 50
90.0
 51
180.0
  0
LINE
  5
37B
330
168
100
AcDbEntity
  8
OBJECT
100
AcDbLine
 10
1852.854266666746
 20
1741.066370456015
 30
0.0
 11
1852.854269412835
 21
1727.066370472391
 31
0.0
  0
ARC
  5
37C
330
168
100
AcDbEntity
  8
OBJECT
100
AcDbCircle
 10
1838.793711920411
 20
1741.066367714418
 30
0.0
 40
19.84185474633749
100
AcDbArc
 50
315.1236554800699
 51
44.87636699698271
  0
LINE
  5
37D
330
168
100
AcDbEntity
  8
OBJECT
100
AcDbLine
 10
1870.854266666746
 20
1571.260009459577
 30
0.0
 11
1870.854266666746
 21
1694.261001958962
 31
0.0
  0
LINE
  5
37E
330
168
100
AcDbEntity
  8
OBJECT
100
AcDbLine
 10
1852.854266666746
 20
1571.260009459577
 30
0.0
 11
1852.854266666746
 21
1694.261001958962
 31
0.0
  0
LINE
  5
37F
330
168
100
AcDbEntity
  8
OBJECT
100
AcDbLine
 10
1852.854266666746
 20
1571.260009459577
 30
0.0
 11
1852.854266666746
 21
1698.697142061551
 31
0.0
  0
LINE
  5
380
330
168
100
AcDbEntity
  8
OBJECT
100
AcDbLine
 10
1870.854266666746
 20
1571.260009459577
 30
0.0
 11
1852.854266666746
 21
1571.260009459577
 31
0.0
  0
ARC
  5
381
330
168
100
AcDbEntity
  8
OBJECT
100
AcDbCircle
 10
1856.793711920411
 20
1627.4906640862
 30
0.0
 40
19.84185474633749
100
AcDbArc
 50
315.1236554800699
 51
44.87636699698271
  0
LINE
  5
382
330
168
100
AcDbEntity
  8
OBJECT
100
AcDbLine
 10
1870.854266666746
 20
1627.490666827792
 30
0.0
 11
1870.854269412838
 21
1613.490666844171
 31
0.0
  0
LINE
  5
383
330
168
100
AcDbEntity
  8
OBJECT
100
AcDbLine
 10
1870.854266666746
 20
1697.427613486774
 30
0.0
 11
1852.854266666746
 21
1697.427613486774
 31
0.0
  0
LINE
  5
384
330
168
100
AcDbEntity
  8
OBJECT
100
AcDbLine
 10
1870.854266666746
 20
1694.261001958962
 30
0.0
 11
1870.854266666746
 21
1697.427613486774
 31
0.0
  0
ARC
  5
385
330
168
100
AcDbEntity
  8
OBJECT
100
AcDbCircle
 10
1838.793711920411
 20
1799.449911104088
 30
0.0
 40
19.84185474633749
100
AcDbArc
 50
315.1236554800699
 51
44.87636699698271
  0
LINE
  5
386
330
168
100
AcDbEntity
  8
OBJECT
100
AcDbLine
 10
1852.854266666746
 20
1799.449913845682
 30
0.0
 11
1852.854269412835
 21
1785.449913862058
 31
0.0
  0
ARC
  5
387
330
168
100
AcDbEntity
  8
OBJECT
100
AcDbCircle
 10
1838.793711920411
 20
1876.178548455317
 30
0.0
 40
19.84185474633748
100
AcDbArc
 50
315.1236554800699
 51
44.87636699698271
  0
LINE
  5
388
330
168
100
AcDbEntity
  8
OBJECT
100
AcDbLine
 10
1852.854266666746
 20
1876.178551196913
 30
0.0
 11
1852.854269412835
 21
1862.178551213289
 31
0.0
  0
LINE
  5
389
330
168
100
AcDbEntity
  8
OBJECT
100
AcDbLine
 10
1852.854266666746
 20
1901.006445337307
 30
0.0
 11
1852.854268790633
 21
1890.178546322244
 31
0.0
  0
ARC
  5
38A
330
168
100
AcDbEntity
  8
OBJECT
100
AcDbCircle
 10
1838.793711920411
 20
2073.80123926819
 30
0.0
 40
19.84185474633748
100
AcDbArc
 50
315.1236554800699
 51
44.87636699698271
  0
ARC
  5
38B
330
168
100
AcDbEntity
  8
OBJECT
100
AcDbCircle
 10
1838.793711920411
 20
1994.70671593366
 30
0.0
 40
19.84185474633748
100
AcDbArc
 50
315.1236554800699
 51
44.87636699698271
  0
LINE
  5
38C
330
168
100
AcDbEntity
  8
OBJECT
100
AcDbLine
 10
1852.854266666746
 20
1994.706718675253
 30
0.0
 11
1852.854269412835
 21
1980.706718691631
 31
0.0
  0
LINE
  5
38D
330
168
100
AcDbEntity
  8
OBJECT
100
AcDbLine
 10
1852.854266666746
 20
2073.801242009785
 30
0.0
 11
1852.854269412835
 21
2059.80124202616
 31
0.0
  0
ARC
  5
38E
330
168
100
AcDbEntity
  8
OBJECT
100
AcDbCircle
 10
1838.793711920411
 20
2132.327820145877
 30
0.0
 40
19.84185474633748
100
AcDbArc
 50
315.1236554800699
 51
44.87636699698271
  0
LINE
  5
38F
330
168
100
AcDbEntity
  8
OBJECT
100
AcDbLine
 10
1852.854266666746
 20
2132.327822887474
 30
0.0
 11
1852.854269412835
 21
2118.32782290385
 31
0.0
  0
ARC
  5
390
330
168
100
AcDbEntity
  8
OBJECT
100
AcDbCircle
 10
1838.793711920411
 20
2230.245681865155
 30
0.0
 40
19.84185474633749
100
AcDbArc
 50
315.1236554800699
 51
44.87636699698271
  0
LINE
  5
391
330
168
100
AcDbEntity
  8
OBJECT
100
AcDbLine
 10
1852.854266666746
 20
2230.245684606749
 30
0.0
 11
1852.854269412835
 21
2216.245684623127
 31
0.0
  0
ARC
  5
392
330
168
100
AcDbEntity
  8
OBJECT
100
AcDbCircle
 10
1838.793711920411
 20
2182.756355632107
 30
0.0
 40
19.84185474633748
100
AcDbArc
 50
315.1236554800699
 51
44.87636699698271
  0
LINE
  5
393
330
168
100
AcDbEntity
  8
OBJECT
100
AcDbLine
 10
1852.854266666746
 20
2182.756358373703
 30
0.0
 11
1852.854269412835
 21
2168.756358390079
 31
0.0
  0
LINE
  5
394
330
168
100
AcDbEntity
  8
OBJECT
100
AcDbLine
 10
1852.854266666746
 20
2297.326613162053
 30
0.0
 11
1834.854266666744
 21
2297.326613162053
 31
0.0
  0
MTEXT
  5
395
330
168
100
AcDbEntity
  8
TEKST
100
AcDbMText
 10
1358.622904524203
 20
2850.373515086873
 30
0.0
 40
75.18097186823435
 41
868.6785999999997
 71
     1
 72
     1
  1
{\FIMPACT.TTF;Hoogte: 67cm\PMax. valhoogte: 42 cm}
1001
ACAD
1000
MTEXTBEGIN
1070
    73
1070
     1
1070
    44
1040
1.0
1070
    74
1070
     0
1000
MTEXTEND
1000
MTEXTBEGIN
1070
    73
1070
     1
1070
    44
1040
1.0
1070
    74
1070
     0
1000
MTEXTEND
  0
POLYLINE
  5
396
330
168
100
AcDbEntity
  8
SAFETY
  6
DASHED
100
AcDb2dPolyline
 66
     1
 10
0.0
 20
0.0
 30
0.0
 70
     1
  0
VERTEX
  5
3E4
330
396
100
AcDbEntity
  8
SAFETY
  6
DASHED
100
AcDbVertex
100
AcDb2dVertex
 10
1516.854266666745
 20
3797.326613162054
 30
0.0
  0
VERTEX
  5
3E5
330
396
100
AcDbEntity
  8
SAFETY
  6
DASHED
100
AcDbVertex
100
AcDb2dVertex
 10
1877.854266666744
 20
3797.326613162054
 30
0.0
 42
-0.4176796013398687
  0
VERTEX
  5
3E6
330
396
100
AcDbEntity
  8
SAFETY
  6
DASHED
100
AcDbVertex
100
AcDb2dVertex
 10
3352.854266666746
 20
2297.326613162053
 30
0.0
  0
VERTEX
  5
3E7
330
396
100
AcDbEntity
  8
SAFETY
  6
DASHED
100
AcDbVertex
100
AcDb2dVertex
 10
3352.854266666746
 20
1516.844091738287
 30
0.0
 42
-0.4176796013398685
  0
VERTEX
  5
3E8
330
396
100
AcDbEntity
  8
SAFETY
  6
DASHED
100
AcDbVertex
100
AcDb2dVertex
 10
1877.854266666744
 20
16.8440917382893
 30
0.0
  0
VERTEX
  5
3E9
330
396
100
AcDbEntity
  8
SAFETY
  6
DASHED
100
AcDbVertex
100
AcDb2dVertex
 10
1516.854266666745
 20
16.8440917382893
 30
0.0
 42
-0.4142135623730951
  0
VERTEX
  5
3EA
330
396
100
AcDbEntity
  8
SAFETY
  6
DASHED
100
AcDbVertex
100
AcDb2dVertex
 10
16.85426666674607
 20
1516.844091738287
 30
0.0
  0
VERTEX
  5
3EB
330
396
100
AcDbEntity
  8
SAFETY
  6
DASHED
100
AcDbVertex
100
AcDb2dVertex
 10
16.85426666674607
 20
2297.326613162053
 30
0.0
 42
-0.4142135623730951
  0
SEQEND
  5
3EC
330
396
100
AcDbEntity
  8
SAFETY
  6
DASHED
  0
ENDBLK
  5
16A
330
168
100
AcDbEntity
  8
0
100
AcDbBlockEnd
  0
BLOCK
  5
3CE
330
39B
100
AcDbEntity
  8
0
 62
     2
100
AcDbBlockBegin
  2
*U1
 70
     1
 10
0.0
 20
0.0
 30
0.0
  3
*U1
  1

  0
SOLID
  5
39C
330
39B
100
AcDbEntity
  8
HATCH
  6
CONTINUOUS
 62
     1
100
AcDbTrace
 10
1542.511120916237
 20
1718.409516222898
 30
0.0
 11
1534.854266666745
 21
1716.066370472391
 31
0.0
 12
1536.854266666745
 22
1716.066370472391
 32
0.0
 13
1536.854266666745
 23
1716.066370472391
 33
0.0
210
0.0
220
0.0
230
1.0
  0
SOLID
  5
39D
330
39B
100
AcDbEntity
  8
HATCH
  6
CONTINUOUS
 62
     1
100
AcDbTrace
 10
1827.197412417252
 20
1718.409516222898
 30
0.0
 11
1832.854266666744
 21
1716.066370472391
 31
0.0
 12
1834.854266666744
 22
1716.066370472391
 32
0.0
 13
1834.854266666744
 23
1716.066370472391
 33
0.0
210
0.0
220
0.0
230
1.0
  0
SOLID
  5
39E
330
39B
100
AcDbEntity
  8
HATCH
  6
CONTINUOUS
 62
     1
100
AcDbTrace
 10
1544.854266666745
 20
1724.066370472391
 30
0.0
 11
1534.854266666745
 21
1716.066370472391
 31
0.0
 12
1542.511120916237
 22
1718.409516222898
 32
0.0
 13
1542.511120916237
 23
1718.409516222898
 33
0.0
210
0.0
220
0.0
230
1.0
  0
SOLID
  5
39F
330
39B
100
AcDbEntity
  8
HATCH
  6
CONTINUOUS
 62
     1
100
AcDbTrace
 10
1824.854266666745
 20
1724.066370472391
 30
0.0
 11
1827.197412417252
 21
1718.409516222898
 31
0.0
 12
1834.854266666744
 22
1716.066370472391
 32
0.0
 13
1834.854266666744
 23
1716.066370472391
 33
0.0
210
0.0
220
0.0
230
1.0
  0
SOLID
  5
3A0
330
39B
100
AcDbEntity
  8
HATCH
  6
CONTINUOUS
 62
     1
100
AcDbTrace
 10
1544.854266666745
 20
1758.066370472391
 30
0.0
 11
1534.854266666745
 21
1716.066370472391
 31
0.0
 12
1544.854266666745
 22
1724.066370472391
 32
0.0
 13
1544.854266666745
 23
1724.066370472391
 33
0.0
210
0.0
220
0.0
230
1.0
  0
SOLID
  5
3A1
330
39B
100
AcDbEntity
  8
HATCH
  6
CONTINUOUS
 62
     1
100
AcDbTrace
 10
1824.854266666745
 20
1758.066370472391
 30
0.0
 11
1824.854266666745
 21
1724.066370472391
 31
0.0
 12
1834.854266666744
 22
1716.066370472391
 32
0.0
 13
1834.854266666744
 23
1716.066370472391
 33
0.0
  0
SOLID
  5
3A2
330
39B
100
AcDbEntity
  8
HATCH
  6
CONTINUOUS
 62
     1
100
AcDbTrace
 10
1827.197412417252
 20
1763.723224721883
 30
0.0
 11
1824.854266666745
 21
1758.066370472391
 31
0.0
 12
1834.854266666744
 22
1716.066370472391
 32
0.0
 13
1834.854266666744
 23
1716.066370472391
 33
0.0
210
0.0
220
0.0
230
1.0
  0
SOLID
  5
3A3
330
39B
100
AcDbEntity
  8
HATCH
  6
CONTINUOUS
 62
     1
100
AcDbTrace
 10
1542.511120916237
 20
1763.723224721883
 30
0.0
 11
1534.854266666745
 21
1716.066370472391
 31
0.0
 12
1544.854266666745
 22
1758.066370472391
 32
0.0
 13
1544.854266666745
 23
1758.066370472391
 33
0.0
210
0.0
220
0.0
230
1.0
  0
SOLID
  5
3A4
330
39B
100
AcDbEntity
  8
HATCH
  6
CONTINUOUS
 62
     1
100
AcDbTrace
 10
1534.854266666745
 20
1766.06637047239
 30
0.0
 11
1534.854266666745
 21
1716.066370472391
 31
0.0
 12
1542.511120916237
 22
1763.723224721883
 32
0.0
 13
1542.511120916237
 23
1763.723224721883
 33
0.0
210
0.0
220
0.0
230
1.0
  0
SOLID
  5
3A5
330
39B
100
AcDbEntity
  8
HATCH
  6
CONTINUOUS
 62
     1
100
AcDbTrace
 10
1827.197412417252
 20
1763.723224721883
 30
0.0
 11
1834.854266666744
 21
1766.066370472391
 31
0.0
 12
1832.854266666744
 22
1766.066370472391
 32
0.0
 13
1832.854266666744
 23
1766.066370472391
 33
0.0
210
0.0
220
0.0
230
1.0
  0
SOLID
  5
3A6
330
39B
100
AcDbEntity
  8
HATCH
  6
CONTINUOUS
 62
     1
100
AcDbTrace
 10
1834.854266666744
 20
1766.066370472391
 30
0.0
 11
1827.197412417252
 21
1763.723224721883
 31
0.0
 12
1834.854266666744
 22
1716.066370472391
 32
0.0
 13
1834.854266666744
 23
1716.066370472391
 33
0.0
210
0.0
220
0.0
230
1.0
  0
SOLID
  5
3A7
330
39B
100
AcDbEntity
  8
HATCH
  6
CONTINUOUS
 62
     1
100
AcDbTrace
 10
1536.854266666745
 20
1766.066370472391
 30
0.0
 11
1534.854266666745
 21
1766.06637047239
 31
0.0
 12
1542.511120916237
 22
1763.723224721883
 32
0.0
 13
1542.511120916237
 23
1763.723224721883
 33
0.0
210
0.0
220
0.0
230
1.0
  0
SOLID
  5
3A8
330
39B
100
AcDbEntity
  8
HATCH
  6
CONTINUOUS
 62
     1
100
AcDbTrace
 10
1832.854266666744
 20
1851.178551213289
 30
0.0
 11
1834.854266666744
 21
1698.697142061551
 31
0.0
 12
1852.854266666746
 22
1698.697142061551
 32
0.0
 13
1852.854266666746
 23
1698.697142061551
 33
0.0
210
0.0
220
0.0
230
1.0
  0
SOLID
  5
3A9
330
39B
100
AcDbEntity
  8
HATCH
  6
CONTINUOUS
 62
     1
100
AcDbTrace
 10
1852.854266666746
 20
1698.697142061551
 30
0.0
 11
1834.854266666744
 21
1851.178551213289
 31
0.0
 12
1832.854266666744
 22
1851.178551213289
 32
0.0
 13
1832.854266666744
 23
1851.178551213289
 33
0.0
  0
SOLID
  5
3AA
330
39B
100
AcDbEntity
  8
HATCH
  6
CONTINUOUS
 62
     1
100
AcDbTrace
 10
1542.511120916237
 20
1853.521696963796
 30
0.0
 11
1534.854266666745
 21
1851.178551213289
 31
0.0
 12
1536.854266666745
 22
1851.178551213289
 32
0.0
 13
1536.854266666745
 23
1851.178551213289
 33
0.0
210
0.0
220
0.0
230
1.0
  0
SOLID
  5
3AB
330
39B
100
AcDbEntity
  8
HATCH
  6
CONTINUOUS
 62
     1
100
AcDbTrace
 10
1827.197412417252
 20
1853.521696963796
 30
0.0
 11
1834.854266666744
 21
1698.697142061551
 31
0.0
 12
1832.854266666744
 22
1851.178551213289
 32
0.0
 13
1832.854266666744
 23
1851.178551213289
 33
0.0
  0
SOLID
  5
3AC
330
39B
100
AcDbEntity
  8
HATCH
  6
CONTINUOUS
 62
     1
100
AcDbTrace
 10
1544.854266666745
 20
1859.178551213289
 30
0.0
 11
1534.854266666745
 21
1851.178551213289
 31
0.0
 12
1542.511120916237
 22
1853.521696963796
 32
0.0
 13
1542.511120916237
 23
1853.521696963796
 33
0.0
210
0.0
220
0.0
230
1.0
  0
SOLID
  5
3AD
330
39B
100
AcDbEntity
  8
HATCH
  6
CONTINUOUS
 62
     1
100
AcDbTrace
 10
1824.854266666745
 20
1859.178551213289
 30
0.0
 11
1834.854266666744
 21
1698.697142061551
 31
0.0
 12
1827.197412417252
 22
1853.521696963796
 32
0.0
 13
1827.197412417252
 23
1853.521696963796
 33
0.0
  0
SOLID
  5
3AE
330
39B
100
AcDbEntity
  8
HATCH
  6
CONTINUOUS
 62
     1
100
AcDbTrace
 10
1544.854266666745
 20
1893.178551213289
 30
0.0
 11
1534.854266666745
 21
1851.178551213289
 31
0.0
 12
1544.854266666745
 22
1859.178551213289
 32
0.0
 13
1544.854266666745
 23
1859.178551213289
 33
0.0
210
0.0
220
0.0
230
1.0
  0
SOLID
  5
3AF
330
39B
100
AcDbEntity
  8
HATCH
  6
CONTINUOUS
 62
     1
100
AcDbTrace
 10
1542.511120916237
 20
1898.835405462781
 30
0.0
 11
1534.854266666745
 21
1851.178551213289
 31
0.0
 12
1544.854266666745
 22
1893.178551213289
 32
0.0
 13
1544.854266666745
 23
1893.178551213289
 33
0.0
210
0.0
220
0.0
230
1.0
  0
SOLID
  5
3B0
330
39B
100
AcDbEntity
  8
HATCH
  6
CONTINUOUS
 62
     1
100
AcDbTrace
 10
1834.854266666743
 20
1901.178551213289
 30
0.0
 11
1834.854266666744
 21
1851.178551213289
 31
0.0
 12
1852.854266666746
 22
1698.697142061551
 32
0.0
 13
1852.854266666746
 23
1698.697142061551
 33
0.0
210
0.0
220
0.0
230
1.0
  0
SOLID
  5
3B1
330
39B
100
AcDbEntity
  8
HATCH
  6
CONTINUOUS
 62
     1
100
AcDbTrace
 10
1536.854266666745
 20
1901.178551213289
 30
0.0
 11
1534.854266666745
 21
1851.178551213289
 31
0.0
 12
1542.511120916237
 22
1898.835405462781
 32
0.0
 13
1542.511120916237
 23
1898.835405462781
 33
0.0
210
0.0
220
0.0
230
1.0
  0
SOLID
  5
3B2
330
39B
100
AcDbEntity
  8
HATCH
  6
CONTINUOUS
 62
     1
100
AcDbTrace
 10
1534.854266666745
 20
1901.178551213289
 30
0.0
 11
1534.854266666745
 21
1851.178551213289
 31
0.0
 12
1536.854266666745
 22
1901.178551213289
 32
0.0
 13
1536.854266666745
 23
1901.178551213289
 33
0.0
210
0.0
220
0.0
230
1.0
  0
SOLID
  5
3B3
330
39B
100
AcDbEntity
  8
HATCH
  6
CONTINUOUS
 62
     1
100
AcDbTrace
 10
1852.854266666746
 20
2297.326613162053
 30
0.0
 11
1832.854266666744
 21
1901.178551213289
 31
0.0
 12
1834.854266666743
 22
1901.178551213289
 32
0.0
 13
1834.854266666743
 23
1901.178551213289
 33
0.0
210
0.0
220
0.0
230
1.0
  0
SOLID
  5
3B4
330
39B
100
AcDbEntity
  8
HATCH
  6
CONTINUOUS
 62
     1
100
AcDbTrace
 10
1852.854266666746
 20
2297.326613162053
 30
0.0
 11
1834.854266666743
 21
1901.178551213289
 31
0.0
 12
1852.854266666746
 22
1698.697142061551
 32
0.0
 13
1852.854266666746
 23
1698.697142061551
 33
0.0
210
0.0
220
0.0
230
1.0
  0
SOLID
  5
3B5
330
39B
100
AcDbEntity
  8
HATCH
  6
CONTINUOUS
 62
     1
100
AcDbTrace
 10
1516.854266666745
 20
2297.326613162053
 30
0.0
 11
1516.854266666745
 21
1698.697142061551
 31
0.0
 12
1534.854266666745
 22
1698.697142061551
 32
0.0
 13
1534.854266666745
 23
1698.697142061551
 33
0.0
210
0.0
220
0.0
230
1.0
  0
SOLID
  5
3B6
330
39B
100
AcDbEntity
  8
HATCH
  6
CONTINUOUS
 62
     1
100
AcDbTrace
 10
1534.854266666745
 20
2297.326613162053
 30
0.0
 11
1516.854266666745
 21
2297.326613162053
 31
0.0
 12
1534.854266666745
 22
1698.697142061551
 32
0.0
 13
1534.854266666745
 23
1698.697142061551
 33
0.0
  0
SOLID
  5
3B7
330
39B
100
AcDbEntity
  8
HATCH
  6
CONTINUOUS
 62
     1
100
AcDbTrace
 10
1834.854266666744
 20
2297.326613162053
 30
0.0
 11
1832.854266666744
 21
1901.178551213289
 31
0.0
 12
1852.854266666746
 22
2297.326613162053
 32
0.0
 13
1852.854266666746
 23
2297.326613162053
 33
0.0
210
0.0
220
0.0
230
1.0
  0
SOLID
  5
3B8
330
39B
100
AcDbEntity
  8
HATCH
  6
CONTINUOUS
 62
     1
100
AcDbTrace
 10
1834.854266666744
 20
2297.326613162053
 30
0.0
 11
1827.197412417252
 21
1898.83540546278
 31
0.0
 12
1832.854266666744
 22
1901.178551213289
 32
0.0
 13
1832.854266666744
 23
1901.178551213289
 33
0.0
  0
SOLID
  5
3B9
330
39B
100
AcDbEntity
  8
HATCH
  6
CONTINUOUS
 62
     1
100
AcDbTrace
 10
1834.854266666744
 20
2297.326613162053
 30
0.0
 11
1824.854266666745
 21
1893.178551213289
 31
0.0
 12
1827.197412417252
 22
1898.83540546278
 32
0.0
 13
1827.197412417252
 23
1898.83540546278
 33
0.0
  0
SOLID
  5
3BA
330
39B
100
AcDbEntity
  8
HATCH
  6
CONTINUOUS
 62
     1
100
AcDbTrace
 10
-1834.854266666744
 20
2297.326613162053
 30
0.0
 11
-1824.854266666745
 21
1859.178551213289
 31
0.0
 12
-1824.854266666745
 22
1893.178551213289
 32
0.0
 13
-1824.854266666745
 23
1893.178551213289
 33
0.0
210
0.0
220
0.0
230
-1.0
  0
SOLID
  5
3BB
330
39B
100
AcDbEntity
  8
HATCH
  6
CONTINUOUS
 62
     1
100
AcDbTrace
 10
-1834.854266666744
 20
2297.326613162053
 30
0.0
 11
-1834.854266666744
 21
1698.697142061551
 31
0.0
 12
-1824.854266666745
 22
1859.178551213289
 32
0.0
 13
-1824.854266666745
 23
1859.178551213289
 33
0.0
210
0.0
220
0.0
230
-1.0
  0
SOLID
  5
3BC
330
39B
100
AcDbEntity
  8
HATCH
  6
CONTINUOUS
 62
     1
100
AcDbTrace
 10
1534.854266666744
 20
1698.697142061551
 30
0.0
 11
1516.854266666745
 21
1698.697142061551
 31
0.0
 12
1534.854266666745
 22
1571.260009459577
 32
0.0
 13
1534.854266666745
 23
1571.260009459577
 33
0.0
210
0.0
220
0.0
230
1.0
  0
SOLID
  5
3BD
330
39B
100
AcDbEntity
  8
HATCH
  6
CONTINUOUS
 62
     1
100
AcDbTrace
 10
1516.854266666744
 20
1571.260009459577
 30
0.0
 11
1534.854266666745
 21
1571.260009459577
 31
0.0
 12
1516.854266666745
 22
1698.697142061551
 32
0.0
 13
1516.854266666745
 23
1698.697142061551
 33
0.0
210
0.0
220
0.0
230
1.0
  0
SOLID
  5
3BE
330
39B
100
AcDbEntity
  8
HATCH
  6
CONTINUOUS
 62
     1
100
AcDbTrace
 10
1516.854266666745
 20
1571.260009459576
 30
0.0
 11
1516.854266666745
 21
1518.844091738289
 31
0.0
 12
1534.854266666744
 22
1518.844091738288
 32
0.0
 13
1534.854266666744
 23
1518.844091738288
 33
0.0
210
0.0
220
0.0
230
1.0
  0
SOLID
  5
3BF
330
39B
100
AcDbEntity
  8
HATCH
  6
CONTINUOUS
 62
     1
100
AcDbTrace
 10
1534.854266666745
 20
1571.260009459577
 30
0.0
 11
1516.854266666745
 21
1571.260009459576
 31
0.0
 12
1534.854266666744
 22
1518.844091738288
 32
0.0
 13
1534.854266666744
 23
1518.844091738288
 33
0.0
210
0.0
220
0.0
230
1.0
  0
SOLID
  5
3C0
330
39B
100
AcDbEntity
  8
HATCH
  6
CONTINUOUS
 62
     1
100
AcDbTrace
 10
1852.854266666746
 20
1571.260009459576
 30
0.0
 11
1852.854266666746
 21
1698.697142061551
 31
0.0
 12
1834.854266666744
 22
1698.697142061551
 32
0.0
 13
1834.854266666744
 23
1698.697142061551
 33
0.0
210
0.0
220
0.0
230
1.0
  0
SOLID
  5
3C1
330
39B
100
AcDbEntity
  8
HATCH
  6
CONTINUOUS
 62
     1
100
AcDbTrace
 10
1834.854266666744
 20
1698.697142061551
 30
0.0
 11
1834.854266666744
 21
1571.260009459576
 31
0.0
 12
1852.854266666746
 22
1571.260009459576
 32
0.0
 13
1852.854266666746
 23
1571.260009459576
 33
0.0
210
0.0
220
0.0
230
1.0
  0
SOLID
  5
3C2
330
39B
100
AcDbEntity
  8
HATCH
  6
CONTINUOUS
 62
     1
100
AcDbTrace
 10
1852.854266666746
 20
1518.844091738289
 30
0.0
 11
1852.854266666746
 21
1571.260009459577
 31
0.0
 12
1834.854266666744
 22
1571.260009459577
 32
0.0
 13
1834.854266666744
 23
1571.260009459577
 33
0.0
210
0.0
220
0.0
230
1.0
  0
SOLID
  5
3C3
330
39B
100
AcDbEntity
  8
HATCH
  6
CONTINUOUS
 62
     1
100
AcDbTrace
 10
1834.854266666744
 20
1571.260009459577
 30
0.0
 11
1834.854266666744
 21
1518.844091738289
 31
0.0
 12
1852.854266666746
 22
1518.844091738289
 32
0.0
 13
1852.854266666746
 23
1518.844091738289
 33
0.0
210
0.0
220
0.0
230
1.0
  0
SOLID
  5
3C4
330
39B
100
AcDbEntity
  8
HATCH
  6
CONTINUOUS
 62
     1
100
AcDbTrace
 10
1827.377041091692
 20
1899.009503108134
 30
0.0
 11
1544.83862637808
 21
1893.678551213288
 31
0.0
 12
1824.869906955408
 22
1893.678551213288
 32
0.0
 13
1824.869906955408
 23
1893.678551213288
 33
0.0
210
0.0
220
0.0
230
1.0
  0
SOLID
  5
3C5
330
39B
100
AcDbEntity
  8
HATCH
  6
CONTINUOUS
 62
     1
100
AcDbTrace
 10
1542.331492241796
 20
1899.009503108134
 30
0.0
 11
1544.83862637808
 21
1893.678551213288
 31
0.0
 12
1827.377041091692
 22
1899.009503108134
 32
0.0
 13
1827.377041091692
 23
1899.009503108134
 33
0.0
  0
SOLID
  5
3C6
330
39B
100
AcDbEntity
  8
HATCH
  6
CONTINUOUS
 62
     1
100
AcDbTrace
 10
1832.854266666744
 20
1901.178551213289
 30
0.0
 11
1542.331492241796
 21
1899.009503108134
 31
0.0
 12
1827.377041091692
 22
1899.009503108134
 32
0.0
 13
1827.377041091692
 23
1899.009503108134
 33
0.0
  0
SOLID
  5
3C7
330
39B
100
AcDbEntity
  8
HATCH
  6
CONTINUOUS
 62
     1
100
AcDbTrace
 10
1536.854266666745
 20
1901.178551213289
 30
0.0
 11
1542.331492241796
 21
1899.009503108134
 31
0.0
 12
1832.854266666744
 22
1901.178551213289
 32
0.0
 13
1832.854266666744
 23
1901.178551213289
 33
0.0
210
0.0
220
0.0
230
1.0
  0
SOLID
  5
3C8
330
39B
100
AcDbEntity
  8
HATCH
  6
CONTINUOUS
 62
     1
100
AcDbTrace
 10
1834.854266666744
 20
1901.178551213289
 30
0.0
 11
1534.854266666745
 21
1901.178551213289
 31
0.0
 12
1536.854266666745
 22
1901.178551213289
 32
0.0
 13
1536.854266666745
 23
1901.178551213289
 33
0.0
210
0.0
220
0.0
230
1.0
  0
SOLID
  5
3C9
330
39B
100
AcDbEntity
  8
HATCH
  6
CONTINUOUS
 62
     1
100
AcDbTrace
 10
1834.854266666744
 20
1901.178551213289
 30
0.0
 11
1536.854266666745
 21
1901.178551213289
 31
0.0
 12
1832.854266666744
 22
1901.178551213289
 32
0.0
 13
1832.854266666744
 23
1901.178551213289
 33
0.0
210
0.0
220
0.0
230
1.0
  0
SOLID
  5
3CA
330
39B
100
AcDbEntity
  8
HATCH
  6
CONTINUOUS
 62
     1
100
AcDbTrace
 10
1534.854266666745
 20
2089.225772257363
 30
0.0
 11
1534.854266666745
 21
1901.178551213289
 31
0.0
 12
1834.854266666744
 22
1901.178551213289
 32
0.0
 13
1834.854266666744
 23
1901.178551213289
 33
0.0
210
0.0
220
0.0
230
1.0
  0
SOLID
  5
3CB
330
39B
100
AcDbEntity
  8
HATCH
  6
CONTINUOUS
 62
     1
100
AcDbTrace
 10
1834.854266666744
 20
2089.225772257364
 30
0.0
 11
1534.854266666745
 21
2089.225772257363
 31
0.0
 12
1834.854266666744
 22
1901.178551213289
 32
0.0
 13
1834.854266666744
 23
1901.178551213289
 33
0.0
210
0.0
220
0.0
230
1.0
  0
SOLID
  5
3CC
330
39B
100
AcDbEntity
  8
HATCH
  6
CONTINUOUS
 62
     1
100
AcDbTrace
 10
1834.854266666744
 20
2136.859768170411
 30
0.0
 11
1534.854266666745
 21
2136.85976817041
 31
0.0
 12
1834.854266666743
 22
2089.225772257363
 32
0.0
 13
1834.854266666743
 23
2089.225772257363
 33
0.0
210
0.0
220
0.0
230
1.0
  0
SOLID
  5
3CD
330
39B
100
AcDbEntity
  8
HATCH
  6
CONTINUOUS
 62
     1
100
AcDbTrace
 10
1534.854266666745
 20
2089.225772257363
 30
0.0
 11
1834.854266666743
 21
2089.225772257363
 31
0.0
 12
1534.854266666745
 22
2136.85976817041
 32
0.0
 13
1534.854266666745
 23
2136.85976817041
 33
0.0
210
0.0
220
0.0
230
1.0
  0
ENDBLK
  5
3CF
330
39B
100
AcDbEntity
  8
0
 62
     2
100
AcDbBlockEnd
  0
BLOCK
  5
3D5
330
3D0
100
AcDbEntity
  8
0
 62
     2
100
AcDbBlockBegin
  2
*U2
 70
     1
 10
0.0
 20
0.0
 30
0.0
  3
*U2
  1

  0
SOLID
  5
3D1
330
3D0
100
AcDbEntity
  8
HATCH
  6
CONTINUOUS
 62
     2
100
AcDbTrace
 10
1824.854266666745
 20
1723.566370472391
 30
0.0
 11
1824.854266666745
 21
1758.566370472391
 31
0.0
 12
1544.854266666745
 22
1758.566370472391
 32
0.0
 13
1544.854266666745
 23
1758.566370472391
 33
0.0
210
0.0
220
0.0
230
1.0
  0
SOLID
  5
3D2
330
3D0
100
AcDbEntity
  8
HATCH
  6
CONTINUOUS
 62
     2
100
AcDbTrace
 10
1544.854266666745
 20
1758.566370472391
 30
0.0
 11
1544.854266666745
 21
1723.566370472391
 31
0.0
 12
1824.854266666745
 22
1723.566370472391
 32
0.0
 13
1824.854266666745
 23
1723.566370472391
 33
0.0
210
0.0
220
0.0
230
1.0
  0
SOLID
  5
3D3
330
3D0
100
AcDbEntity
  8
HATCH
  6
CONTINUOUS
 62
     2
100
AcDbTrace
 10
1544.854266666744
 20
1893.678551213287
 30
0.0
 11
1544.854266666745
 21
1858.678551213289
 31
0.0
 12
1824.854266666745
 22
1858.678551213288
 32
0.0
 13
1824.854266666745
 23
1858.678551213288
 33
0.0
210
0.0
220
0.0
230
1.0
  0
SOLID
  5
3D4
330
3D0
100
AcDbEntity
  8
HATCH
  6
CONTINUOUS
 62
     2
100
AcDbTrace
 10
1824.854266666744
 20
1893.678551213288
 30
0.0
 11
1544.854266666744
 21
1893.678551213287
 31
0.0
 12
1824.854266666745
 22
1858.678551213288
 32
0.0
 13
1824.854266666745
 23
1858.678551213288
 33
0.0
210
0.0
220
0.0
230
1.0
  0
ENDBLK
  5
3D6
330
3D0
100
AcDbEntity
  8
0
 62
     2
100
AcDbBlockEnd
  0
BLOCK
  5
3E2
330
3D7
100
AcDbEntity
  8
0
 62
     2
100
AcDbBlockBegin
  2
*U3
 70
     1
 10
0.0
 20
0.0
 30
0.0
  3
*U3
  1

  0
SOLID
  5
3D8
330
3D7
100
AcDbEntity
  8
HATCH
  6
CONTINUOUS
 62
   251
100
AcDbTrace
 10
1516.854266666744
 20
1697.427613486773
 30
0.0
 11
1498.854266666745
 21
1697.427613486774
 31
0.0
 12
1516.854266666744
 22
1571.260009459577
 32
0.0
 13
1516.854266666744
 23
1571.260009459577
 33
0.0
  0
SOLID
  5
3D9
330
3D7
100
AcDbEntity
  8
HATCH
  6
CONTINUOUS
 62
   251
100
AcDbTrace
 10
1498.854266666745
 20
1694.261001958962
 30
0.0
 11
1516.854266666744
 21
1571.260009459577
 31
0.0
 12
1498.854266666745
 22
1697.427613486774
 32
0.0
 13
1498.854266666745
 23
1697.427613486774
 33
0.0
210
0.0
220
0.0
230
1.0
  0
SOLID
  5
3DA
330
3D7
100
AcDbEntity
  8
HATCH
  6
CONTINUOUS
 62
   251
100
AcDbTrace
 10
1516.854266666744
 20
1571.260009459577
 30
0.0
 11
1498.854266666745
 21
1694.261001958962
 31
0.0
 12
1498.854266666745
 22
1571.260009459577
 32
0.0
 13
1498.854266666745
 23
1571.260009459577
 33
0.0
210
0.0
220
0.0
230
1.0
  0
SOLID
  5
3DB
330
3D7
100
AcDbEntity
  8
HATCH
  6
CONTINUOUS
 62
   251
100
AcDbTrace
 10
1516.854266666744
 20
1571.260009459576
 30
0.0
 11
1498.854266666745
 21
1518.844091738288
 31
0.0
 12
1516.854266666745
 22
1518.844091738289
 32
0.0
 13
1516.854266666745
 23
1518.844091738289
 33
0.0
210
0.0
220
0.0
230
1.0
  0
SOLID
  5
3DC
330
3D7
100
AcDbEntity
  8
HATCH
  6
CONTINUOUS
 62
   251
100
AcDbTrace
 10
1498.854266666745
 20
1571.260009459577
 30
0.0
 11
1498.854266666745
 21
1518.844091738288
 31
0.0
 12
1516.854266666744
 22
1571.260009459576
 32
0.0
 13
1516.854266666744
 23
1571.260009459576
 33
0.0
210
0.0
220
0.0
230
1.0
  0
SOLID
  5
3DD
330
3D7
100
AcDbEntity
  8
HATCH
  6
CONTINUOUS
 62
   251
100
AcDbTrace
 10
1870.854266666746
 20
1694.261001958962
 30
0.0
 11
1852.854266666746
 21
1571.260009459577
 31
0.0
 12
1870.854266666746
 22
1571.260009459577
 32
0.0
 13
1870.854266666746
 23
1571.260009459577
 33
0.0
210
0.0
220
0.0
230
1.0
  0
SOLID
  5
3DE
330
3D7
100
AcDbEntity
  8
HATCH
  6
CONTINUOUS
 62
   251
100
AcDbTrace
 10
1870.854266666746
 20
1694.261001958962
 30
0.0
 11
1870.854266666746
 21
1697.427613486774
 31
0.0
 12
1852.854266666746
 22
1697.427613486774
 32
0.0
 13
1852.854266666746
 23
1697.427613486774
 33
0.0
210
0.0
220
0.0
230
1.0
  0
SOLID
  5
3DF
330
3D7
100
AcDbEntity
  8
HATCH
  6
CONTINUOUS
 62
   251
100
AcDbTrace
 10
1852.854266666746
 20
1697.427613486774
 30
0.0
 11
1852.854266666746
 21
1571.260009459577
 31
0.0
 12
1870.854266666746
 22
1694.261001958962
 32
0.0
 13
1870.854266666746
 23
1694.261001958962
 33
0.0
  0
SOLID
  5
3E0
330
3D7
100
AcDbEntity
  8
HATCH
  6
CONTINUOUS
 62
   251
100
AcDbTrace
 10
1870.854266666746
 20
1571.260009459576
 30
0.0
 11
1852.854266666746
 21
1571.260009459576
 31
0.0
 12
1870.854266666746
 22
1518.844091738289
 32
0.0
 13
1870.854266666746
 23
1518.844091738289
 33
0.0
  0
SOLID
  5
3E1
330
3D7
100
AcDbEntity
  8
HATCH
  6
CONTINUOUS
 62
   251
100
AcDbTrace
 10
1852.854266666745
 20
1518.844091738289
 30
0.0
 11
1870.854266666746
 21
1518.844091738289
 31
0.0
 12
1852.854266666746
 22
1571.260009459576
 32
0.0
 13
1852.854266666746
 23
1571.260009459576
 33
0.0
  0
ENDBLK
  5
3E3
330
3D7
100
AcDbEntity
  8
0
 62
     2
100
AcDbBlockEnd
  0
ENDSEC
  0
SECTION
  2
ENTITIES
  0
INSERT
  5
397
330
1F
100
AcDbEntity
  8
HATCH
 62
     2
100
AcDbBlockReference
  2
AAKL
 10
0.0
 20
0.0
 30
0.0
  0
ENDSEC
  0
SECTION
  2
OBJECTS
  0
DICTIONARY
  5
C
330
0
100
AcDbDictionary
  3
ACAD_GROUP
350
D
  3
ACAD_LAYOUT
350
1A
  3
ACAD_MLINESTYLE
350
17
  3
ACAD_PLOTSETTINGS
350
19
1001
ACAD
1000
TREAT_AS_HARD
1070
     0
1000
TREAT_AS_HARD
1070
     0
  0
DICTIONARY
  5
15C
330
1F
100
AcDbDictionary
  3
ACAD_LAYOUTSELFREF
350
399
  3
ACAD_SORTENTS
350
327
1001
ACAD
1000
TREAT_AS_HARD
1070
     1
1000
TREAT_AS_HARD
1070
     0
  0
DICTIONARY
  5
15E
330
50
100
AcDbDictionary
  3
ACAD_LAYOUTSELFREF
350
39A
1001
ACAD
1000
TREAT_AS_HARD
1070
     1
1000
TREAT_AS_HARD
1070
     0
  0
DICTIONARY
  5
D
102
{ACAD_REACTORS
330
C
102
}
330
C
100
AcDbDictionary
1001
ACAD
1000
TREAT_AS_HARD
1070
     0
1000
TREAT_AS_HARD
1070
     0
  0
DICTIONARY
  5
1A
102
{ACAD_REACTORS
330
C
102
}
330
C
100
AcDbDictionary
1001
ACAD
1000
TREAT_AS_HARD
1070
     0
1000
TREAT_AS_HARD
1070
     0
  0
DICTIONARY
  5
17
102
{ACAD_REACTORS
330
C
102
}
330
C
100
AcDbDictionary
  3
STANDARD
350
18
1001
ACAD
1000
TREAT_AS_HARD
1070
     0
1000
TREAT_AS_HARD
1070
     0
  0
DICTIONARY
  5
19
102
{ACAD_REACTORS
330
C
102
}
330
C
100
AcDbDictionary
1001
ACAD
1000
TREAT_AS_HARD
1070
     0
1000
TREAT_AS_HARD
1070
     0
  0
XRECORD
  5
399
102
{ACAD_REACTORS
330
15C
102
}
330
15C
100
AcDbXrecord
340
1F
  0
SORTENTSTABLE
  5
327
102
{ACAD_REACTORS
330
15C
102
}
330
15C
100
AcDbSortentsTable
330
1F
331
286
  5
287
331
2A8
  5
2A9
331
256
  5
257
331
297
  5
298
331
275
  5
276
331
267
  5
268
331
284
  5
285
331
2A6
  5
2A7
331
254
  5
256
331
295
  5
296
331
273
  5
274
331
265
  5
266
331
282
  5
283
331
2A4
  5
2A5
331
252
  5
254
331
293
  5
294
331
271
  5
272
331
2B5
  5
2F6
331
263
  5
264
331
280
  5
281
331
2A2
  5
2A3
331
250
  5
252
331
291
  5
292
331
26F
  5
270
331
326
  5
24C
331
2B3
  5
2B4
331
261
  5
262
331
2A0
  5
2A1
331
28F
  5
290
331
26D
  5
26E
331
2B1
  5
2B2
331
25F
  5
260
331
27E
  5
27F
331
24E
  5
250
331
28D
  5
28E
331
26B
  5
26C
331
300
  5
24B
331
2AF
  5
2B0
331
25D
  5
25E
331
27C
  5
27D
331
29E
  5
29F
331
24C
  5
24E
331
28B
  5
28C
331
269
  5
26A
331
2AD
  5
2AE
331
25B
  5
25C
331
29C
  5
29D
331
27A
  5
27B
331
289
  5
28A
331
2AB
  5
2AC
331
259
  5
25A
331
29A
  5
29B
331
278
  5
279
331
234
  5
300
331
287
  5
288
331
2A9
  5
2AA
331
257
  5
258
331
298
  5
299
331
276
  5
277
331
285
  5
286
331
2A7
  5
2A8
331
255
  5
326
331
296
  5
297
331
266
  5
267
331
274
  5
275
331
283
  5
284
331
2A5
  5
2A6
331
253
  5
255
331
294
  5
295
331
272
  5
273
331
2F6
  5
234
331
264
  5
265
331
281
  5
282
331
2A3
  5
2A4
331
251
  5
253
331
292
  5
293
331
270
  5
271
331
2B4
  5
2B5
331
262
  5
263
331
2A1
  5
2A2
331
290
  5
291
331
26E
  5
26F
331
2B2
  5
2B3
331
260
  5
261
331
27F
  5
280
331
24F
  5
251
331
28E
  5
28F
331
26C
  5
26D
331
2B0
  5
2B1
331
25E
  5
25F
331
27D
  5
27E
331
29F
  5
2A0
331
24D
  5
24F
331
28C
  5
28D
331
26A
  5
26B
331
2AE
  5
2AF
331
25C
  5
25D
331
27B
  5
27C
331
29D
  5
29E
331
24B
  5
24D
331
28A
  5
28B
331
268
  5
269
331
2AC
  5
2AD
331
25A
  5
25B
331
29B
  5
29C
331
279
  5
27A
331
288
  5
289
331
2AA
  5
2AB
331
258
  5
259
331
299
  5
29A
331
277
  5
278
  0
XRECORD
  5
39A
102
{ACAD_REACTORS
330
15E
102
}
330
15E
100
AcDbXrecord
340
50
  0
MLINESTYLE
  5
18
102
{ACAD_REACTORS
330
17
102
}
330
17
100
AcDbMlineStyle
  2
STANDARD
 70
     0
  3

 62
   256
 51
90.0
 52
90.0
 71
     2
 49
0.5
 62
   256
  6
BYLAYER
 49
-0.5
 62
   256
  6
BYLAYER
  0
ENDSEC
  0
EOF
